Pause Screen (Banjo-Kazooie) Ukulele Tab

Pause Screen
Banjo-Kazooie
Rare
Kiwi
17/08/2013

"Chorus":
|3----------3----------2----------2----------|
|---3-5-3------3-5-3------2-4-2------2-4-2---|
|--------------------------------------------|
|--------------------------------------------|

Na na-na-na naaa:
|-----------------------------|
|3-----5-3------3-----5-3-----|
|---4-------4------4-------4--|
|-----------------------------|

Chorus again:
|3----------3----------2----------2----------|
|---3-5-3------3-5-3------2-4-2------2-4-2---|
|--------------------------------------------|
|--------------------------------------------|

Last segment:
|------------------------|
|3--3--5-6--5--3--6--3---|
|-----------------------4|
|------------------------|

Then repeat once more but 2 keys higher!

|5----------5----------4----------4----------|
|---5-7-5------5-7-5------4-6-4------4-6-4---|
|--------------------------------------------|
|--------------------------------------------|

|-----------------------------|
|5-----7-5------5-----7-5-----|
|---6-------6------6-------6--|
|-----------------------------|

|5----------5----------4----------4----------|
|---5-7-5------5-7-5------4-6-4------4-6-4---|
|--------------------------------------------|
|--------------------------------------------|

|------------------------|
|5--5--7-8--7--5--8--5---|
|-----------------------6|
|------------------------|

And now repeat from the start! :D

Leave a Comment

Your email address will not be published. Required fields are marked *

Scroll to Top