Porky’s Theme (Super Smash Bros. Brawl) Guitar Tab

Porky's Theme
Super Smash Bros. Brawl
Composed by Shogo Sakai
Arranged by Shogo Sakai
Tabbed by hslesperance
10/25/08

Standard Tuning

e-------------------------/6----/6----/6--/6--/6----/6---
B--------------------------------------------------------
G--------2-----------------------------------------------
D---3-------1--2-----------------------------------------
A-----------------2--3-----------------------------------
E--------------------------------------------------------

e---/6----/6----/6--/6-------------------------0---------
B------------------------------0--1------1--3---------1--
G---------------------------2----------2------------2----
D-------------------------2------------------------------
A--------------------------------------------------------
E--------------------------------------------------------

e------0------0--1--3----3--5-3--2--0-----0----0--2-3----
B---3-------1--------------------------1-----------------
G--------------------------------------------------------
D--------------------------------------------------------
A--------------------------------------------------------
E--------------------------------------------------------

e---2--0----1---0-----------------0----------------------
B------------------3--1--0---1-0-------------------------
G-------------------------------------2------------------
D--------------------------------------------------------
A--------------------------------------------0-0--2--3---
E--------------------------------------------------------

e--------------------------------------------------------
B--------------------------------------------------------
G------------------------0------------0------0--1--3-----
D--------0--1------1--3---------1--3-------1-------------
A-----3----------3------------3--------------------------
E---3----------------------------------------------------

e--------------------------------------------------------
B-------1------------------------------------------------
G---3-----3--1--0-----0----0---1-3--1--0----1---0--------
D------------------1-------------------------------3--1--
A--------------------------------------------------------
E--------------------------------------------------------

e---------------------------------1--3-------------------
B-----------------1--3--4----1-4----------3---1-0--1-3---
G--------------0-----------------------------------------
D---0---1-0----------------------------------------------
A--------------------------------------------------------
E--------------------------------------------------------

e-----1--------------------------------------------------
B---4-----4-3---4-3--1-0-------3-3--------3---1-0--1-3---
G---------------------------0----------------------------
D--------------------------------------------------------
A--------------------------------------------------------
E--------------------------------------------------------

e-----1-----3-----6---4-3----3-------------3---1-----1-3-
B---4-----3-----4--------------------------------4-------
G-------------------------------0-0----------------------
D--------------------------------------------------------
A--------------------------------------------------------
E--------------------------------------------------------

e---3-6-----8---6-4---3-4-------8-10-10-10-10-10-10-10---
B---------8------------------6---------------------------
G--------------------------------------------------------
D--------------------------------------------------------
A--------------------------------------------------------
E--------------------------------------------------------

e---10-10-10----16--15-15--------------------------------
B----------------------------16-15-13----4---------------
G-------------------------------------------3--4---------
D----------------------------------------------------1---
A-------------------------------------------------1------
E--------------------------------------------------------

e--------------------------------------------------------
B--------------------------------------------------------
G---0---2-0------------------------0----------------2----
D------------3----2-----2----2---4----4--2--------2------
A--------------------3-----------------------------------
E--------------------------------------------------------

e---------------------------0------------0---2-0---------
B------2--------------2--3------------------------3--2---
G---4---------------2------------------------------------
D--------------------------------------------------------
A--------------------------------------------------------
E--------------------------------------------------------

e----------------0---------------------------------------
B------2----2--3----3--2------3--2-0---------------------
G---2--------------------------------2-1-2-1-----2-------
D---------------------------------------------2----------
A--------------------------------------------------------
E--------------------------------------------------------

/ - slide up

Leave a Comment

Your email address will not be published. Required fields are marked *

Scroll to Top