Queen Bluegarden (Secret of Evermore) Guitar Tab

                              Secret of Evermore - Queen Bluegarden GUITAR TAB
                                            Song by Jeremy Soule

                             Arranged & tabbed by auriplane ([email protected])


Standard tuning, no capo.  This song is in 6/8 time, 88 bpm.

        Part A

   E   E   E   E   E   E    E   E   E   E   E   S S  E   E   E   E   E   E    E   E   E   E   E   S S
e |------------5-----------|------------5-------3h5-|3-----------3-----------|------------3-------1h3-|
B |----0---------------0---|----0---------------0---|----0---1-------1---0---|----0---1-------1---0---|
G |--------5-------5-------|--------5-------5-------|2-----------------------|2-----------------------|
D |7-----------------------|7-----------------------|------------------------|------------------------|
A |------------------------|------------------------|------------------------|------------------------|
E |------------------------|------------------------|------------------------|------------------------|

   E   E   E   E   E   E    E   E   E   E   E   S S  E   E   E   E   E   E    E   E   E   E   E   S S
e |1-----------1-----------|------------1-------0h1-|0-----------0-----------|------------0-------0h1-|
B |----0---1-------1---0---|----0---1-------1---0---|--------3-------3-------|--------3-------3-------|
G |2-----------------------|2-----------------------|----1---------------1---|----1---------------1---|
D |------------------------|------------------------|2-----------------------|2-----------------------|
A |------------------------|------------------------|------------------------|------------------------|
E |------------------------|------------------------|------------------------|------------------------|

   E   E   E   E   E   E    E   E   E   E   E   S S  E   E   E   E   E   E    E   E   E   E   E   E
e |------------5-----------|0-----------0-------0h1-|5-----------7-----------|8-----------7-----------|
B |3-------3-------3-------|--------3-------3-------|------------------------|------------------------|
G |----2---------------2---|----2---------------2---|--------5-------5-------|--------5-------5-------|
D |3-----------------------|3-----------------------|0---3---------------3---|0---7---------------7---|
A |------------------------|------------------------|------------------------|------------------------|
E |------------------------|------------------------|------------------------|------------------------|

   E   E   E   E   E   E    E   E   E   E   E   S S  E   E   E   E   E   E    E   E   E   E   E   E
e |5-----------5-----------|------------5-------5h7-|4-----------4-----------|------------0-----------|
B |--------0-------0-------|--------0-------0-------|--------3-------3-------|--------3-------3-------|
G |------------------------|------------------------|----4---------------4---|----1---------------1---|
D |----7---------------7---|----7---------------7---|2-----------------------|2-----------------------|
A |6-----------------------|6-----------------------|------------------------|------------------------|
E |------------------------|------------------------|------------------------|------------------------|


        Part B

   E   E   E   E   E   E    E   E   E   E   E   S S  E   E   E   E   E   E    E   E   E   E   E   S S
e |------------5-----------|------------5-------3h5-|3-----------3-----------|------------3-------1h3-|
B |----0---------------0---|----0---------------0---|----0---1-------1---0---|----0---1-------1---0---|
G |--------5-------5-------|--------5-------5-------|2-----------------------|2-----------------------|
D |7-----------------------|7-----------------------|0-----------------------|------------------------|
A |0-----------------------|------------------------|------------------------|------------------------|
E |------------------------|------------------------|------------------------|------------------------|

   E   E   E   E   E   E    E   E   E   E   E   S S  E   E   E   E   E   E    E   E   E   E   E   S S
e |1-----------1-----------|------------1-------0h1-|0-----------0-----------|------------0-------0h1-|
B |----0---1-------1---0---|----0---1-------1---0---|--------3-------3-------|--------3-------3-------|
G |2-----------------------|2-----------------------|----1---------------1---|----1---------------1---|
D |------------------------|------------------------|2-----------------------|2-----------------------|
A |------------------------|------------------------|------------------------|------------------------|
E |3-----------------------|------------------------|0-----------------------|------------------------|

   E   E   E   E   E   E    E   E   E   E   E   S S  E   E   E   E   E   E    E   E   E   E   E   E
e |------------5-----------|0-----------0-------0h1-|5-----------7-----------|8-----------7-----------|
B |3-------3-------3-------|--------3-------3-------|------------------------|------------------------|
G |----2---------------2---|----2---------------2---|--------5-------5-------|--------5-------5-------|
D |------------------------|3-----------------------|0---3---------------3---|0---7---------------7---|
A |------------------------|------------------------|------------------------|------------------------|
E |1-----------------------|------------------------|------------------------|------------------------|

   E   E   E   E   E   E    E   E   E   E   E   S S  E   E   E   E   E   E    E   E   E   E   E   E
e |5-----------5-----------|------------5-------5h7-|4-----------4-----------|------------0-----------|
B |--------0-------0-------|--------0-------0-------|--------3-------3-------|--------3-------3-------|
G |------------------------|------------------------|----4---------------4---|----1---------------1---|
D |----7---------------7---|----7---------------7---|2-----------------------|2-----------------------|
A |6-----------------------|6-----------------------|------------------------|------------------------|
E |7-----------------------|------------------------|0-----------------------|------------------------|


        Part C

   S S S S S S E   S S S S  S S S S S S E   S S S S  S S S S S S E   S S S S  S S S S S S E   S S S S  
e |----------0-----0-------|----------0-----0-------|----------0-3---0-------|----------0-2---0-------|
B |------0-1---------0-0---|------0-1---------1-0---|------0-1---------1-0---|------0-1---------1-0---|
G |----0-------2---------0-|----0-------2---------0-|----0-----------------0-|----0-----------------0-|
D |--2---------------------|--2---------------------|--2---------------------|--2---------------------|
A |0-----------------------|0-----------------------|0-----------------------|0-----------------------|
E |------------------------|------------------------|------------------------|------------------------|


   S S S S S S E   S S S S  S S S S S S E   S S S S  S S S S S S E   S S S S  Q       Q       Q        
e |----------0-0-----------|----------0-2---0-------|------------------------|--------7-------8-------|
B |------0-1-------1-0-----|------0-1---------1-0---|--------5-7-7---5-------|10------10------10------|
G |----0---------------0---|----0-------------------|----4-5-----------5-4---|--------0---------------|
D |--2-------------------2-|--2-------------------4-|--4-------------------4-|7---------------0-------|
A |0-----------------------|0-----------------------|0-----------------------|------------------------|
E |------------------------|------------------------|------------------------|------------------------|


        Part D

   E   E   E   E   E   E    E   E   E   E   E   S S  E   E   E   E   E   E    E   E   E   E   E   E    
e |8-----------0-----------|8-----------0-----------|------------------------|------------0-----------|
B |------------------------|--------------------8h10|8-----------------------|------------------------|
G |----0---------------0---|----0---------------0---|--------0---7---0-------|--------0-------0-------|
D |--------7-------7-------|--------7-------7-------|0-----------------------|0-----------------------|
A |8-----------------------|8-----------------------|----8---------------8---|----8---------------8---|
E |------------------------|------------------------|------------------------|------------------------|
                                                                                                     
   E   E   E   E   E   E    E   E   E   E   E   S S  E   E   E   E   E   E    E   E   E   E   E   E    
e |5-----------------------|--------------------3h5-|3-----------------------|------------------------|
B |------------5-----------|------------5-----------|------------5-----------|------------3-----------|
G |------------------------|--------------------0---|------------------------|------------------------|
D |----5---7-------7---5---|----5---7-------7-------|----3---5-------5---3---|----3---5-------5---3---|
A |8-----------------------|8-----------------------|5-----------------------|5-----------------------|
E |------------------------|------------------------|------------------------|------------------------|
       
   E   E   E   E   E   E    E   E   E   E   E   E    E   E   E   E   E   E    E   E   E   E   E   E       
e |------------5-----------|------------5-----------|------------5-----------|------------5-----------|
B |----0---------------0---|----0---------------0---|----0---------------0---|----0---------------0---|
G |--------5-------5-------|--------5-------5-------|--------5-------5-------|--------5-------5-------|
D |7-----------------------|7-----------------------|7-----------------------|7-----------------------|
A |------------------------|------------------------|------------------------|------------------------|
E |------------------------|------------------------|------------------------|------------------------|

   H.
e |------------------------|
B |------------------------|
G |------------------------|
D |7-----------------------|
A |------------------------|
E |------------------------|



Duration Legend
---------------
H - half
Q - quarter
E - 8th
S - 16th
. - note dotted


Tablature Legend
----------------
h - hammer on

Leave a Comment

Your email address will not be published. Required fields are marked *

Scroll to Top