Runaround

Intro  (0:00)
G|------------------------|------------------------|----------------|----------------|  -
D|------------------------|------------------------|----------------|----------------|   |
A|12-12-12-10-10-10-12-12-|12-10-10-10-12-12-10---|3-3-3-3-3-3-3-3-|3/8-8-8-8-7-7-7-|   |
E|------------------------|------------------------|----------------|----------------|   |
                                                                                         |- (x2)
G|------------------------|------------------------|----------------|----------------|   |
D|------------------10-10-|10-12-12-12-14-14-15---|----------------|----------------|   |
A|12-12-12-10-10-10-------|------------------------|3-3-3-3-3-3-3-3-|3/8-8-8-8-7-7-7-|   |
E|------------------------|------------------------|----------------|----------------|  -/

Verse 1  (0:26)
G|------------------------|------------------------|----------------|----------------|
D|------------------------|------------------------|----------------|----------------|
A|12-12-12-10-10-10-12-12-|12-10-10-10-12-12-10---|3-3-3-3-3-3-3-3-|3/8-8-8-8-7-7-7-| (x2)
E|------------------------|------------------------|----------------|----------------|

Chorus  (0:39)
G|----------------|----------------|----------------|----------------|
D|----------------|----------------|----------------|----------------|
A|1-1-1-1-1-3-3-3-|3/5-5-5-5-3-3-3|1-1-1-1-1-3-3-3-|3/5-5-5-5-3---3|
E|----------------|----------------|----------------|----------------|

G|----------------|----------------|----------------|----------------|
D|----------------|----------------|----------------|----------------|
A|1-1-1-1-1-3-3-3-|3/5-5-5-5-3-3-3|1-1-1-1-1-3-3-3-|3/5-5-5-5-3-3-3/|
E|----------------|----------------|----------------|----------------|

Interlude  (0:53)
G|------------------------|------------------------|----------------|----------------|  -
D|------------------------|------------------------|----------------|----------------|   |
A|12-12-12-10-10-10-12-12-|12-10-10-10-12-12-10---|3-3-3-3-3-3-3-3-|3/8-8-8-8-7-7-7-|   |
E|------------------------|------------------------|----------------|----------------|   |
                                                                                         |- (x2)
G|------------------------|------------------------|----------------|----------------|   |
D|------------------10-10-|10-12-12-12-14-14-15---|----------------|----------------|   |
A|12-12-12-10-10-10-------|------------------------|3-3-3-3-3-3-3-3-|3/8-8-8-8-7-7-7-|   |
E|------------------------|------------------------|----------------|----------------|  -/

Verse 2  (1:19)
G|------------------------|------------------------|----------------|----------------|
D|------------------------|------------------------|----------------|----------------|
A|12-12-12-10-10-10-12-12-|12-10-10-10-12-12-10---|3-3-3-3-3-3-3-3-|3/8-8-8-8-7-7-7-| (x2)
E|------------------------|------------------------|----------------|----------------|

Chorus  (1:33)
G|----------------|----------------|----------------|----------------|
D|----------------|----------------|----------------|----------------|
A|1-1-1-1-1-3-3-3-|3/5-5-5-5-3-3-3|1-1-1-1-1-3-3-3-|3/5-5-5-5-3-3-3-| (x4)
E|----------------|----------------|----------------|----------------|

Outro  (1:59)
G|----------------|----------------|----------------|----------------|
D|----------------|----------------|----------------|----------------|
A|1-1-1-1-1-3-3---|3/5-5-5-5-3-3--|1-1-1-1-1-3-3-3-|3/5-5-5-5-3-3-3-| (x2)
E|----------------|----------------|----------------|----------------|

G|----------------|
D|----------------|
A|1---------------|
E|----------------|


************************************

| /   Slide up
|    Slide down

************************************

Leave a Comment

Your email address will not be published. Required fields are marked *

Scroll to Top