Running Away

INTRO 
G--------------------------------------------------- 
D--------------------------------------------------- 
A-------33----------55----------33--------55-------- 
E33--3------33-555-----55-33--3----33-555----55-33-- 
 
RIFF 1 
G--------------------------------------------------- 
D--------------------------------------------------- 
A--------55--3313131-----------55--3313131---------- 
E33-566---------------33--566---------------33------ 
 
RIFF 2 
G--------------------------------------------------- 
D--------------------------------------------------- 
A-----333-------333-------333----------------------- 
E333-------333-------333-------333------------------ 
 
são essa notas aí, ouve bem o som pra toca certinho! 
Jah Bless... 

Leave a Comment

Your email address will not be published. Required fields are marked *

Scroll to Top