Sadness and Sorrow (Naruto) Guitar Tab

e| |------3--2----------3--2-------------| (1)r
B| |-------------3--------------0--------|
G| |-------------------------------------|
D| |-------------------------------------|
A| |-------------------------------------|
E| |-0-----------------0-----------------| 

e| |-2-0----------0--3--5-------0----3---3-2-3-5-0-7---5--| (2)
B| |-----0------------------------------------------------|
G| |------------------------------------------------------|
D| |------------------------------------------------------|
A| |------------------------------------------------------|
E| |--------0---------------------------------------------| 

e| |-2-0---------0--3--5--0--3---3-2-3-2----------------| (3)
B| |-----0-----------------------------------------3s-5-|
G| |----------------------------------------------------|
D| |----------------------------------------------------|
A| |----------------------------------------------------|
E| |--------0-------------------------------------------| 

e| |-0-2-3-5-7-0-3-2-0------| (4)
B| |------------------------|
G| |------------------------|
D| |------------------------|
A| |------------------------|
E| |------------------------|

e| |--3-5-3-2---7-7--5------| (5)
B| |------------------------|
G| |------------------------|
D| |------------------------|
A| |------------------------|
E| |------------------------|

e| |-0-2-3-5-7-0-3--2-0----2-3-2-3-2--------------------------| (6)
B| |----------------------------------------------------3s-5--|
G| |----------------------------------------------------------|
D| |----------------------------------------------------------|
A| |----------------------------------------------------------|
E| |----------------------------------------------------------| 

Leave a Comment

Your email address will not be published. Required fields are marked *

Scroll to Top