Sanctuary (Legend of Zelda: A Link to the Past) Guitar Tab

Sanctuary
The Legend of Zelda: A Link to the Past
Composed by Koji Kondo

8/16/06

e-------------------------------------------3-----8-7-3-----3-----8-7-3-----
B--------------------------1--3--0------------4-1-------3-0---4-1-------3-0-
G---------------------------------------------------------------------------
D--1--3--0-----1--3--0------------------------------------------------------
A---------------------------------------------------------------------------
E---------------------------------------------------------------------------

e--3-----8-7-8-10-7-8-3-8-15-15-10-7-3-8-3-8-15-15-10-7-3-8-5
B----4-1-----------------------------------------------------
G------------------------------------------------------------
D------------------------------------------------------------
A------------------------------------------------------------
E------------------------------------------------------------

e--------2-2-8-7-1-4-3-3-1-----3--
B--4-4-1-------------------3-0---4
G---------------------------------
D---------------------------------
A---------------------------------
E---------------------------------

Leave a Comment

Your email address will not be published. Required fields are marked *

Scroll to Top