Shake It Off

Just came out 10 minutes ago!

*There's no bass in the verses, so I tabbed the trumpet instead!

  Verse 0:05 x3
G|--------------------------------5---5-5---5---5-5-5---5---5-5-----|
D|o-5-7-7---7---5-7-7---7---7-7-5---------------------------------3-|
A|o-----------------------------------------------------------------|
E|------------------------------------------------------------------|
    1 + 2 + 3 + 4 + 1 + 2 + 3 + 4 + 1 + 2 + 3 + 4 + 1 + 2 + 3 + 4 +

G|------------------------------------------------------------------|
D|-5---5---5-----------------------3---5---5-------------------3---o|
A|-----------------------------------------------------------------o|
E|------------------------------------------------------------------|
   1 + 2 + 3 + 4 + 1 + 2 + 3 + 4 + 1 + 2 + 3 + 4 + 1 + 2 + 3 + 4 +

  Chorus 0:41 x2
G|------------------------------------------------------------------|
D|o-----------------------------------------------------------------|
A|o-------------------------------3---3-3---3---3-3-3---3---3-3-----|
E|--5-5-5---5---5-5-5---5---5-5-3-------------------------------1---|
    1 + 2 + 3 + 4 + 1 + 2 + 3 + 4 + 1 + 2 + 3 + 4 + 1 + 2 + 3 + 4 +

G|------------------------------------------------------------------|
D|-----------------------------------------------------------------o|
A|-----------------------------------------------------------------o|
E|-3-3-3---3---3-3-3---3---3-3-1---3---3-3---3---3-3-3---3---3-3----|
   1 + 2 + 3 + 4 + 1 + 2 + 3 + 4 + 1 + 2 + 3 + 4 + 1 + 2 + 3 + 4 +

  Verse 1:05 x2
G|--------------------------------5---5-5---5---5-5-5---5---5-5-----|
D|o-5-7-7---7---5-7-7---7---7-7-5---------------------------------3-|
A|o-----------------------------------------------------------------|
E|------------------------------------------------------------------|
    1 + 2 + 3 + 4 + 1 + 2 + 3 + 4 + 1 + 2 + 3 + 4 + 1 + 2 + 3 + 4 +

G|------------------------------------------------------------------|
D|-5---5---5-----------------------3---5---5-------------------3---o|
A|-----------------------------------------------------------------o|
E|------------------------------------------------------------------|
   1 + 2 + 3 + 4 + 1 + 2 + 3 + 4 + 1 + 2 + 3 + 4 + 1 + 2 + 3 + 4 +

  Pre-Chorus
G|-------------------------------5---5-5---5---5-5-5---5---5-5-----|
D|-5-7-7---7---5-7-7---7---7-7-5---------------------------------3-|
A|-----------------------------------------------------------------|
E|-----------------------------------------------------------------|
   1 + 2 + 3 + 4 + 1 + 2 + 3 + 4 + 1 + 2 + 3 + 4 + 1 + 2 + 3 + 4 +

G|-----------------------------------------------------------------|
D|-5---5---5-----------------------3---------------------------3---|
A|-----------------------------------------------------------------|
E|-----------------------------------------------------------------|
   1 + 2 + 3 + 4 + 1 + 2 + 3 + 4 + 1 + 2 + 3 + 4 + 1 + 2 + 3 + 4 +

  Chorus 1:42 x3
G|------------------------------------------------------------------|
D|o-----------------------------------------------------------------|
A|o-------------------------------3---3-3---3---3-3-3---3---3-3-----|
E|--5-5-5---5---5-5-5---5---5-5-3-------------------------------1---|
    1 + 2 + 3 + 4 + 1 + 2 + 3 + 4 + 1 + 2 + 3 + 4 + 1 + 2 + 3 + 4 +

G|------------------------------------------------------------------|
D|-----------------------------------------------------------------o|
A|-----------------------------------------------------------------o|
E|-3-3-3---3---3-3-3---3---3-3-1---3---3-3---3---3-3-3---3---3-3----|
   1 + 2 + 3 + 4 + 1 + 2 + 3 + 4 + 1 + 2 + 3 + 4 + 1 + 2 + 3 + 4 +

Rest

  Chorus 2:44 x5
G|------------------------------------------------------------------|
D|o-----------------------------------------------------------------|
A|o-------------------------------3---3-3---3---3-3-3---3---3-3-----|
E|--5-5-5---5---5-5-5---5---5-5-3-------------------------------1---|
    1 + 2 + 3 + 4 + 1 + 2 + 3 + 4 + 1 + 2 + 3 + 4 + 1 + 2 + 3 + 4 +

G|------------------------------------------------------------------|
D|-----------------------------------------------------------------o|
A|-----------------------------------------------------------------o|
E|-3-3-3---3---3-3-3---3---3-3-1---3---3-3---3---3-3-3---3---3-3----|
   1 + 2 + 3 + 4 + 1 + 2 + 3 + 4 + 1 + 2 + 3 + 4 + 1 + 2 + 3 + 4 +

Tabbed By Jack Mills

Leave a Comment

Your email address will not be published. Required fields are marked *

Scroll to Top