She Is Today

Tabbed by: 6METAL6BASSIST6
E-mail: [email protected]

Tuning: EADG

G|----------------------------------------------------------------|
D|----------------------------------------------------------------|
A|8-----------------------------------------------8---------------|
E|----------------------------------------8-----------------------|

G|------------------------------------------------------------------------|
D|------------------------------------------------------------------------|
A|------------------------8---------------------------------------8-------|
E|----------------8-------------------------------------------------------|

G|----------------------------------------------------------------------------------------|
D|----------------------------------------------------------------------------------------|
A|7-----------7---7---7-------7---7-----------7---7---7-------7---7-------7-------7-------|
E|----------------------------------------------------------------------------------------|

0:12

G|----------------------------------------------------------------|
D|----------------------------------------------------------------|
A|8-----------------------------------------------8---------------|
E|----------------------------------------8-----------------------|

G|------------------------------------------------------------------------|
D|------------------------------------------------------------------------|
A|------------------------8---------------------------------------8-------|
E|----------------8-------------------------------------------------------|

G|--------------------------/-9-------7---------------------------|
D|--------------------------------------------9-----6-----6---9---|
A|7-----------7---7---7-------------------------------7-----------|
E|----------------------------------------------------------------|

0:21

G|--------------------------------------------------------7-------|
D|7-----------7---7---7-------7---------------7---9---9-------9---|
A|------------------------------------7---9-----------------------|
E|----------------------------------------------------------------|

G|----------------------------------------------------7---7-------|
D|7-----------7---7---7-------7---------------7---9-----------9---|
A|------------------------------------7---9-----------------------|
E|----------------------------------------------------------------|

G|----------------------------------------------------------------|
D|7-----------7---7---7-------7---6-----------6---6---6-------6---|
A|----------------------------------------------------------------|
E|----------------------------------------------------------------|

G|----------------------------------------------------------------|
D|----------------------------------------------------------------|
A|9-----------9---9---9-------9---7-----------7---7---7-------7---|
E|----------------------------------------------------------------|

G|----------------7-----------------------------------------------|
D|------------7-------7-----------5---5-------5---5---5-----------|
A|5---5-----------------------5-----------------------------------|
E|----------------------------------------------------------------|

G|------------6-------------------------------7-------6-----------|
D|7---9---------------------------5---7---9-----------------------|
A|----------------------------------------------------------------|
E|----------------------------------------------------------------|

G|------------6---------------------------------------------------|
D|7---9---------------------------9---5---------------------------|
A|----------------------------------------7---5-------7-----------|
E|----------------------------------------------------------------|

0:42

G|----------------------------------------------------------------|
D|----------------------------------------------------------------|
A|8-----------------------------------------------8---------------|
E|----------------------------------------8-----------------------|

G|------------------------------------------------------------------------|
D|------------------------------------------------------------------------|
A|------------------------8---------------------------------------8-------|
E|----------------8-------------------------------------------------------|

G|----------------------------------------------------------------------------------------|
D|----------------------------------------------------------------------------------------|
A|7-----------7---7---7-------7---7-----------7---7---7-------7---7-------7-------7-------|
E|----------------------------------------------------------------------------------------|

0:53

G|----------------------------------------------------------------|
D|----------------------------------------------------------------|
A|8-----------------------------------------------8---------------|
E|----------------------------------------8-----------------------|

G|------------------------------------------------------------------------|
D|------------------------------------------------------------------------|
A|------------------------8---------------------------------------8-------|
E|----------------8-------------------------------------------------------|

G|--------------------------/-9-------7---------------------------|
D|--------------------------------------------9-----6-----6---9---|
A|7-----------7---7---7-------------------------------7-----------|
E|----------------------------------------------------------------|

1:02

G|----------------------------------------------------7---7-------|
D|7-----------7---7---7-------7---------------7---9-----------9---| x2
A|------------------------------------7---9-----------------------|
E|----------------------------------------------------------------|

G|----------------------------------------------------------------|
D|7-----------7---7---7-------7---6-----------6---6---6-------6---|
A|----------------------------------------------------------------|
E|----------------------------------------------------------------|

G|----------------------------------------------------------------|
D|----------------------------------------------------------------|
A|9-----------9---9---9-------9---8-----------8---8---8-----------|
E|----------------------------------------------------------------|

1:14

G|--------------------------------------------------------------------------------|
D|7---7-------7---6-----------------------5---5-------5---4-----------------------|
A|--------------------------------------------------------------------------------|
E|--------------------------------------------------------------------------------|

G|----------------------------------------------------------------|
D|----------------------------------------------------------------|
A|7-----------7---7---7-------7---7-----------7---7---7-------7---|
E|----------------------------------------------------------------|

G|----------------------------------------------------------------|
D|----------------------------------------------------------------|
A|7---7-------7---7---7-------7---7---7---7-------7---7---7-------|
E|----------------------------------------------------------------|

G|--------------------------------------------------------------------------------|
D|7---7-------7---5-----------------------7---7-------7---5-----------------------| x2
A|--------------------------------------------------------------------------------|
E|--------------------------------------------------------------------------------|

1:31

G|----------------------------------------------------7---7-------|
D|7---7-------7---7---7-------7---------------7---9-----------9---|
A|------------------------------------7---9-----------------------|
E|----------------------------------------------------------------|

G|----------------------------------------------------7---7-------|
D|7-----------7---7---7-------7---------------7---9-----------9---| x5
A|------------------------------------7---9-----------------------|
E|----------------------------------------------------------------|

1:49

G|--------------------------------------------------------------------------------|
D|7---7-------7---6-----------------------5---5-------5---4-----------------------|
A|--------------------------------------------------------------------------------|
E|--------------------------------------------------------------------------------|

G|----------------------------------------------------------------|
D|2-----------2---2---2-------2---2-----------2---2---2-------2---|
A|----------------------------------------------------------------|
E|----------------------------------------------------------------|

G|----------------------------------------------------------------|
D|----2-------2-------2-------2---2---2---2-----2-2---2-----/-----|
A|----------------------------------------------------------------|
E|----------------------------------------------------------------|

1:59

G|----------------------------------------------------7---7-------|
D|7---7-------7---7---7-------7---------------7---9-----------9---|
A|------------------------------------7---9-----------------------|
E|----------------------------------------------------------------|

G|----------------------------------------------------7-----------|
D|7-----------7---7---7-------7---------------7---9-------9---7---|
A|------------------------------------7---9-----------------------|
E|----------------------------------------------------------------|

G|--------------------------------------------------------7-------|
D|7-----------7---7---7-------7-------------------7---9-------9---| x7
A|------------------------------------9---7---9-------------------|
E|----------------------------------------------------------------|

G|----------------------------------------------------7-----------|
D|7---7-------7---7---7-------7---------------7---9-------9-------|
A|------------------------------------7---9-----------------------|
E|----------------------------------------------------------------|

G|------------------------------------------------------------------------|
D|7-----------7-------7-------7-------7-------7-------7-------7-------7---| fades out here.
A|------------------------------------------------------------------------|
E|------------------------------------------------------------------------|

Leave a Comment

Your email address will not be published. Required fields are marked *

Scroll to Top