Shirohae (Naruto Shippuuden) Guitar Tab

			         Shirohae
			~Naruto Shippuden O.S.T 2~

Music by Yasuharu Takanashi
Performed by Masaaki Iizuka & Kenji Fujisawa
Tabbed by Coolbreeze
Tempo = 60


Guitar 1

     W                   W                     Q.     E  Q.     S  S  
E||-------------------|-------------------|--------------------------|
B||-------------------|-------------------|-----------1--3------5s-3-|
G||-------------------|-------------------|--1g2---------------------|
D||-------------------|-------------------|--------------------------|
A||-------------------|-------------------|--------------------------|
E||-------------------|-------------------|--------------------------|


  H.           Q         Q.     E  Q.     S  S    H        Q    E  E   
--------------------|---------------------1s-3-|--0-------------0--3--|
--------------------|-----------1--3-----------|----------------------|
--2-----------------|--1g2---------------------|----------------------|
--------------------|--------------------------|----------------------|
--------------------|--------------------------|----------------------|
--------------------|--------------------------|----------------------|


    H        Q    E  E       H.           Q         Q.     E  Q    E  E    
--3g5-------------3--0--|----------------------|--------------------------|
------------------------|--3g5-----------------|--1g3------5--------------|
------------------------|----------------------|-----------4--4-------5s--|
------------------------|----------------------|--------------------------|
------------------------|----------------------|--------------------------|
------------------------|----------------------|--------------------------|


  H.           Q       W                     H        H         
--------------------|-------------------|-------------8--------|
--------------------|-------------------|--3g5-----------------|
--2-----------------|-------------------|----------------------|
--------------------|-------------------|----------------------|
--------------------|-------------------|----------------------|
--------------------|-------------------|----------------------|


    Q    Q    H           Q    Q    H             Q    Q    H         
--5g7----5----3--------|--5----7----8--------|---------1----3--------|
-----------------------|---------------------|--3g5------------------|
-----------------------|---------------------|-----------------------|
-----------------------|---------------------|-----------------------|
-----------------------|---------------------|-----------------------|
-----------------------|---------------------|-----------------------|


  H          H           Q    Q    H           H        H         
-----------3g5--------|--8----7----5--------|--7--------3--------|
--3-------------------|---------------------|--------------------|
----------------------|---------------------|--------------------|
----------------------|---------------------|--------------------|
----------------------|---------------------|--------------------|
----------------------|---------------------|--------------------|


  H        Q    Q         H        H             Q    Q    H         
--5--------8----7----|-------------8--------|--5g7----5----3--------|
---------------------|--3g5-----------------|-----------------------|
---------------------|----------------------|-----------------------|
---------------------|----------------------|-----------------------|
---------------------|----------------------|-----------------------|
---------------------|----------------------|-----------------------|


  Q    Q    H             Q    Q    H             H          H         
--5----7----8--------|---------1----3--------|-------------3g5--------|
---------------------|--3g5------------------|--1g3-------------------|
---------------------|-----------------------|------------------------|
---------------------|-----------------------|------------------------|
---------------------|-----------------------|------------------------|
---------------------|-----------------------|------------------------|


  Q    Q    H             H        H           H          Q    Q     
--8----7----5--------|--5g7--------3--------|--5--------7g8----7----|
---------------------|----------------------|-----------------------|
---------------------|----------------------|-----------------------|
---------------------|----------------------|-----------------------|
---------------------|----------------------|-----------------------|
---------------------|----------------------|-----------------------|


    H        H           W                     Q.     E  Q.     E   
--5g7--------5--------|-------------------|---------------------0--|
----------------------|-------------------|-----------1--3---------|
----------------------|-------------------|--1g2-------------------|
----------------------|-------------------|------------------------|
----------------------|-------------------|------------------------|
----------------------|-------------------|------------------------|


  H.           Q         Q.     E  Q.     S  S    H.           E  E   
--------------------|---------------------1s-3-|--0------------0--3--|
--------------------|-----------1--3-----------|---------------------|
--2-----------------|--1g2---------------------|---------------------|
--------------------|--------------------------|---------------------|
--------------------|--------------------------|---------------------|
--------------------|--------------------------|---------------------|


    H        Q    E  E       H.           Q         Q.     E    Q    E  E   
--3g5-------------3--0--|----------------------|-----------0---------------|
------------------------|--3g5-----------------|--1g3----------------------|
------------------------|----------------------|--------------3g4-------5--|
------------------------|----------------------|---------------------------|
------------------------|----------------------|---------------------------|
------------------------|----------------------|---------------------------|


  H.           E.    S    H.           Q       W                 
-----------------------|--5-----------------|-------------------|
-------------------3g5-|--------------------|-------------------|
--2--------------------|--------------------|-------------------|
-----------------------|--------------------|-------------------|
-----------------------|--------------------|-------------------|
-----------------------|--------------------|-------------------|


  W                  
-------------------||
-------------------||
-------------------||
-------------------||
-------------------||
-------------------||




Guitar 2

     E  E  E  E  H           E  E  E  E  H           E  E  E  E  E  E  E  E   
E||-----------------------|-----------------------|--------------------------|
B||--------3-----1--------|--------0-----1--------|--------------1-----------|
G||-----------------------|-----------2-----------|--------2-----------2-----|
D||-----2-----2-----------|-----2-----------------|-----2-----2-----2--------|
A||--0--------------------|--0--------------------|--0--------------------0--|
E||-----------------------|-----------------------|--------------------------|


  E  E  E  E  E  E  E  E     E  E  E  E  E  E  E  E   
--------------------------|--------------------------|
--------------1-----------|--------------0-----------|
--------2-----------2-----|--------0-----------0-----|
-----3-----3-----3-----3--|-----0-----0-----0-----0--|
--------------------------|--------------------------|
--1-----------------------|--3-----------------------|


  E  E  E  E  E  E  E  E     E  E  E  E  E  E  E  E   
--------------------------|--------------------------|
--------------1-----------|--------------1-----------|
--------0-----------0-----|--------2-----------2-----|
-----2-----2-----2-----2--|-----3-----3-----3-----3--|
--3-----------------------|--------------------------|
--------------------------|--1-----------------------|


  E  E  E  E  E  E  E  E     E  E  E  E  E  E  E  E   
--------------------------|--------------------------|
--------------1-----------|--------------0-----------|
--------2-----------2-----|--------0-----------0-----|
-----2-----2-----2-----2--|-----0-----0-----0-----0--|
--0-----------------------|--------------------------|
--------------------------|--3-----------------------|


  E  E  E  E  E  E  E  E     E  E  E  E  H           E  E  E  E  E  E  E  E   
--------------------------|-----------------------|--------------------------|
--------------1-----------|--------------1--------|--------1-----------1-----|
--------2-----------2-----|--------2--------------|--------2-----------2-----|
-----3-----3-----3-----3--|-----3-----3-----------|-----2-----2-----2-----2--|
--------------------------|-----------------------|--0-----------0-----------|
--1-----------------------|--1--------------------|--------------------------|


  E  E  E  E  E  E  E  E     E  E  E  E  E  E  E  E   
--------------------------|--------------------------|
--------0-----------0-----|--------1-----------1-----|
--------0-----------0-----|--------2-----------2-----|
-----2-----2-----2-----2--|-----3-----3-----3-----3--|
--------------------------|--------------------------|
--0-----------0-----------|--1-----------1-----------|


  E  E  E  E  E  E  E  E     E  E  E  E  E  E  E  E   
--------------------------|--------1-----------1-----|
--------1-----------1-----|--------3-----------3-----|
--------0-----------0-----|-----2-----2-----2-----2--|
-----2-----2-----2-----2--|--0-----------0-----------|
--3-----------3-----------|--------------------------|
--------------------------|--------------------------|


  E  E  E  E  E  E  E  E     E  E  E  E  E  E  E  E   
--------------------------|--------------------------|
--------1-----------1-----|--------0-----------0-----|
--------2-----------2-----|--------0-----------0-----|
-----2-----2-----2-----2--|-----0-----0-----0-----0--|
--0-----------0-----------|--------------------------|
--------------------------|--3-----------3-----------|


  E  E  E  E  E  E  E  E     E  E  E  E  E  E  E  E   
--------------------------|--------------------------|
--------1-----------0-----|--------1-----------1-----|
--------2-----------0-----|--------2-----------2-----|
-----3-----3-----0-----0--|-----2-----2-----2-----2--|
--------------------------|--0-----------0-----------|
--1-----------3-----------|--------------------------|


  E  E  E  E  E  E  E  E     E  E  E  E  E  E  E  S S  
--------------------------|---------------------------|
--------0-----------0-----|--------1-----------1------|
--------0-----------0-----|--------2-----------2------|
-----2-----2-----2-----2--|-----3-----3-----3---------|
--------------------------|-----------------------0-2-|
--0-----------0-----------|--1-----------1------------|


  E  E  E  E  E  E  E  E     E  E  E  E  E  E  E  E   
--------------------------|--------1-----------1-----|
--------1-----------1-----|--------3-----------3-----|
--------0-----------0-----|-----2-----2-----2-----2--|
-----2-----2-----2-----2--|--0-----------0-----------|
--3-----------3-----------|--------------------------|
--------------------------|--------------------------|


  E  E  E  E  E  E  E  E     E  E  E  E  E  E  E  E   
--------------------------|--------------------------|
--------1-----------1-----|--------0-----------0-----|
--------2-----------2-----|--------0-----------0-----|
-----2-----2-----2-----2--|-----0-----0-----0-----0--|
--0-----------0-----------|--------------------------|
--------------------------|--3-----------3-----------|


  E  E  E  E  E  E  E  E     E  E  E  E  H           E  E  E  E  H         
--------------------------|-----------------------|-----------------------|
--------1-----------0-----|--------3-----1--------|--------0-----1--------|
--------2-----------0-----|--------------2--------|-----------------------|
-----3-----3-----0-----0--|-----2-----2-----------|-----2-----2-----------|
--------------------------|--0--------------------|--0--------------------|
--1-----------3-----------|-----------------------|-----------------------|


  ^                   ^                   ^                     
  W                   W                   H        E  E  E  E   
--0----------------|-------------------|-----------------------|
--1----------------|--1----------------|--0--------------0-----|
--2----------------|--2----------------|--0-----------------0--|
-------------------|--3----------------|--0-----------0--------|
--0----------------|-------------------|-----------------------|
-------------------|--1----------------|--3--------3-----------|


  E  E  E  E    E  E  E  E     E  E  E  E  E  E  E  E   
----------------------------|--------------------------|
--------------0g1--0--------|--------------1-----------|
--------0-------------0-----|--------2-----------2-----|
-----2-----2-------------2--|-----3-----3-----3-----3--|
--3-------------------------|--------------------------|
----------------------------|--1-----------------------|


  E  E  E  E  E  E  E  E     E  E  E  E  E  E  E  E   
--------------------------|--------------------------|
--------------1-----------|--------------0-----------|
--------2-----------2-----|--------0-----------0-----|
-----2-----2-----2-----2--|-----0-----0-----0-----0--|
--0-----------------------|--------------------------|
--------------------------|--3-----------------------|


  E  E  E  E  E  E  E  E     E  E  E  E  E  E  E  E     E  E  E  E  Q    Q     
--------------------------|--------------------------|------------------------|
--------------1-----------|--------------1-----------|--------------1---------|
--------2-----------2-----|--------2-----------2-----|--------2---------------|
-----3-----3-----3-----3--|-----3-----3-----3-----3--|-----2-----2-------2----|
--------------------------|--------------------------|--0---------------------|
--1-----------------------|--1-----------------------|------------------------|


            ^          
  Q    Q    H          
------------0--------||
------------1--------||
--2---------2--------||
-------2----2--------||
------------0--------||
---------------------||

Leave a Comment

Your email address will not be published. Required fields are marked *

Scroll to Top