Show Me How To Live

*Dropped D Tuning*

Intro/Verse
G|---------------------------------------------------|
D|-------2-------------------------------------------|
A|-----2---------------------0h1-0-x-x-0-------------|
D|-0-2-----x-0-2-x-x-0-2-x-x-------------2--2-5-0--0-|

G|------------------------|
D|-------2----------------|
A|-----2------------------|
D|-0-2-----x-0-2-x-x-0-2--|

Chorus
G|-----------------------|
D|----------------0h2----|
A|-----------------------|
D|-2--5--0-2p0-2------0--|

Solo
G|-------------------------|       G|--------------|
D|-------------------------|       D|--------------|
A|-------------------------|  x 3  A|--------------|
D|-9--/12--0-9-7-0--9-7-0--|       D|--9--7--2--4--|

G|------------------------|       G|----------------|
D|------------------------|       D|----------------|
A|------------------------|  x 3  A|----------------|
D|-/9--0--0-9-7-0--9-7-0--|       D|--9--0--12--14--|

Before Last Chorus
G|-------------------|
D|-------------------|
A|-------------------|
D|-2-0--5-0--2-0--2--|

Ending
G|-------------|
D|-------------|
A|-------------|
D|-2----2----0-|

Leave a Comment

Your email address will not be published. Required fields are marked *

Scroll to Top