Sigma Stage 1 (Mega Man X) Guitar Tab

Song: Sigma Stage 1
Game: Mega Man X

Intro: 

Guitar 1:
|------------------------------------------------------------|
|------------------------------------------------------------|
|--15~-------------------------------------------------------|
|------------15-11-------------------------------------------|
|-----------------11~----------------13~---------------------|
|----------------------------14-16-16-----------16-14-13~----|

Guitar 2:
|---------18-----------13-16-----------11-14------------13-16|
|----16-19-----------14--------------12---------------14-----|
|------------------------------------------------------------|
|------------------------------------------------------------|
|------------------------------------------------------------|
|------------------------------------------------------------|

Chorus:

|------------------------------------|
|------------------------------------|
|------------------------------------|
|--8-6--3/3/4-6---3-3-8-6--4-3-------|
|--6-4--1/1/2-4---1-1-6-4--2-1-------|
|------------------------------------|

Break:

|---------------------------------------------|
|---------------------------------------------|
|---------------------------------------------|
|------------13-------------------------------|
|--13~-13-16----11--9-8-9-9~~---11-13-11------|
|----------------------------------------9~---|


|-------------------------------------------------------|
|-------------------------------------------------------|
|----------------------------------------------------13~|
|------------13-------------11-13~-16-15-13--15---------|
|--13~-13-16----11--9-11-13----------------------14-----|
|-------------------------------------------------------|

Solo:

|----------------------------------------------------------------------------------------|
|----------------------------------------------------------------------------------------|
|--13-11-10-11-10--------11-13-10----11-10-------------------------13-------16-13-----15-|
|-----------------11-13-----------11-------11-13-------13-16-15-13----16-16------16-15---|
|------------------------------------------------13-16-----------------------------------|
|----------------------------------------------------------------------------------------|

Return to chorus and repeat to fade...

Leave a Comment

Your email address will not be published. Required fields are marked *

Scroll to Top