Sign of Evil (Doom) Guitar Tab

Sign of Evil
from the video game Doom (1993)
music written by Bobby Prince
tab by MechaKrauser

Guitar standard tuning, capo on 1
4/4 time, ~65bpm (slow and doom-y)

                                       ^                      
                          |-3| |3|                            
       E.  S E   E   Q    E  S S E     E.  S E  E  Q.     E   
E||--2g3------------------3--2---0--|--2---------------------|
B||----0----------------------------|--2---------------------|
G||-------------(0)--L--------------|------------------------|
D||---------------------------------|------------------------|
A||---------------------------------|------------------------|
E||----3---3-3---3---L---------3----|--2---2-2--2--L------2--|


                                    ^                      
                       |-3| |3|                            
    E.  S E   E   Q    E  S S E     E.  S E  E  Q.     E   
--2g3------------------3--2---0--|--2---------------------|
----0----------------------------|--2---------------------|
-------------(0)--L--------------|------------------------|
---------------------------------|------------------------|
---------------------------------|------------------------|
----3---3-3---3---L---------3----|--2---2-2--2--L------2--|


                                      ^                      
                       |----| |3|                            
    E.  S E   E   Q    E    S S E     E.  S E  E  Q.     E   
--2g3------------------3--6g7---3--|--2---------------------|
----0-----------------------0---3--|--2---------------------|
-------------(0)--L----------------|------------------------|
-----------------------------------|------------------------|
-----------------------------------|------------------------|
----3---3-3---3---L-----------3----|--2---2-2--2--L------2--|


  ^                                    ^                      
                     |----|  |--|                             
  E.  S E   E   Q    E    S  S  E      E.  S E  E  Q.     E   
--3------------------3--6g7S---10S--|--7---------------------|
--0-----------------------0-----7S--|--2---------------------|
-----------(0)--L-------------------|------------------------|
------------------------------------|------------------------|
------------------------------------|------------------------|
--3---3-3---3---L-------------------|--2---2-2--2--L------2--|


                                     ^                         
                        3  3  3                                
    E.  S E  S S S E  S E  E  T S    E.  S E.  S S E  S E  E   
--2g3-------------------3--2--0---|--2------------------------|
----0-----------------------------|--2------------------------|
-------------0---L----------------|---------------------------|
----------------------------------|---------------------------|
----------------------------------|---------------------------|
----3---3-3----3-L-3--3-3-------3-|--2---2-2---2-L-2--2-2--2--|


                                     ^                         
                        3  3  3                                
    E.  S E  S S S E  S E  E  T S    E.  S E.  S S E  S E  E   
--2g3-------------------3--2--0---|--2------------------------|
----0-----------------------------|--2------------------------|
-------------0---L----------------|---------------------------|
----------------------------------|---------------------------|
----------------------------------|---------------------------|
----3---3-3----3-L-3--3-3-------3-|--2---2-2---2-L-2--2-2--2--|


                                       ^                         
                        3    3  3                                
    E.  S E  S S S E  S E    E  T S    E.  S E.  S S E  S E  E   
--2g3-------------------3--6g7--3---|--2------------------------|
----0------------------------0--3---|--2------------------------|
-------------0---L------------------|---------------------------|
------------------------------------|---------------------------|
------------------------------------|---------------------------|
----3---3-3----3-L-3--3-3---------3-|--2---2-2---2-L-2--2-2--2--|


  ^                                     ^                         
                      3    3    3                                 
  E.  S E  S S S E  S E    E    T  S    E.  S E.  S S E  S E  E   
--3-------------------3--6g7S--10S---|--7------------------------|
--0------------------------0----7S---|--2------------------------|
-----------0---L---------------------|---------------------------|
-------------------------------------|---------------------------|
-------------------------------------|---------------------------|
--3---3-3----3-L-3--3-3--------------|--2---2-2---2-L-2--2-2--2--|


                                      ^                         
                         3  3  3                                
    E.  S E.  S S E  S   E  E  T S    E.  S E.  S S E  S E  E   
-----------------------------------|---------------------------|
-----------------------------------|---------------------------|
----0--------------------0---------|---------------------------|
--4g5------------------4g5--4--2---|--4------------------------|
-----------------------------------|---------------------------|
----3---3-3---3-L-3--3---3-------3-|--2---2-2---2-L-2--2-2--2--|


                                      ^                         
                         3  3  3                                
    E.  S E.  S S E  S   E  E  T S    E.  S E.  S S E  S E  E   
-----------------------------------|---------------------------|
-----------------------------------|---------------------------|
----0--------------------0---------|---------------------------|
--4g5------------------4g5--4--2---|--4------------------------|
-----------------------------------|---------------------------|
----3---3-3---3-L-3--3---3-------3-|--2---2-2---2-L-2--2-2--2--|


                            ^         ^                         
                         3  3  3                                
    E.  S E.  S S E  S   E  E  T S    E.  S E.  S S E  S E  E   
-----------------------------------|---------------------------|
----------------------------0------|---------------------------|
----0--------------------0--4--0---|---------------------------|
--4g5------------------4g5---------|--4------------------------|
-----------------------------------|---------------------------|
----3---3-3---3-L-3--3---3-------3-|--2---2-2---2-L-2--2-2--2--|


  ^                       ^         ^                         
                       3  3  3                                
  E.  S E.  S S E  S   E  E  T S    E.  S E.  S S E  S E  E   
---------------------------------|---------------------------|
--------------------------0--3---|--0------------------------|
--0--------------------0--4------|--4------------------------|
--5------------------4g5---------|--4------------------------|
---------------------------------|---------------------------|
--3---3-3---3-L-3--3---3-------3-|--2---2-2---2-L-2--2-2--2--|


  ^                                 ^           ^             
                   3   3  3  3                                
  E.  S E.  S S E  T S E  E  T S    E.  S E.  S S E  S E  E   
--0-----------L----0-------------|---------------------------|
--3-----------L--------3--2--0---|--3-----------0------------|
--0-----------L------------------|--4-----------4------------|
---------------------------------|--------------4------------|
---------------------------------|---------------------------|
--3---3-3---3-L-3----3-3-------3-|--2---2-2---2-L-2--2-2--2--|


  ^                                 ^                         
                   3   3  3  3                                
  E.  S E.  S S E  T S E  E  T S    E.  S E.  S S E  S E  E   
--0-----------L----0-------------|---------------------------|
--3-----------L--------3--2--0---|--3------------------------|
--0-----------L------------------|--4------------------------|
---------------------------------|--4------------------------|
---------------------------------|---------------------------|
--3---3-3---3-L-3----3-3-------3-|--2---2-2---2-L-2--2-2--2--|


  ^                                 ^              ^         ^   
                   3   3  3  3                                   
  E.  S E.  S S E  T S E  E  T S    E.  S S S  S S S E  S E  E   
--0-----------L----0-------------|------------------------------|
--3-----------L--------3--2--0---|--3-----L-2h-3-2-0------------|
--0-----------L------------------|--4-----L--------4------------|
---------------------------------|--4-----L--------4---------4--|
---------------------------------|------------------------------|
--3---3-3---3-L-3----3-3-------3-|--2---2-2------2-L-2--2-2--2--|


                          ^        ^                          
    E.  S E  S S   S E  S E.  S    E.  S E.  S S E  S E  E    
--------------------------------|---------------------------||
--------------------------------|--0------------------------||
----0--------------0------3-----|--4------------------------||
--4g5--------4---4g5------5-----|--4------------------------||
--------------------------------|---------------------------||
----3---3-3----3---L-3--3-3---3-|--2---2-2---2-L-2--2-2--2--||




Duration Legend
---------------
W - whole
H - half
Q - quarter
E - 8th
S - 16th
T - 32nd
X - 64th
. - note dotted
|-n-|  - n-tuplets


Tablature Legend
----------------
L - tied note
x - dead note
g - grace note
(n) - ghost note
> - accentuded note
NH - natural harmonic
AH - artificial harmonic
TH - tapped harmonic
SH - semi harmonic
PH - pitch harmonic
h - hammer on
p - pull off
b - bend
br - bendRelease
pb - preBend
pbr - preBendRelease
brb - bendReleaseBend
n/ - tremolo bar dip
n - tremolo bar dive
-/n - tremolo bar Release up
/n - tremolo bar inverted dip
/n - tremolo bar return
-n - tremolo bar Release down
S - shift slide
s - legato slide
/ -  slide into from below or out of upwards
 -  slide into from above or out of downwards
~ - vibrato
W - wide vibrato
tr - trill
TP - tremolo picking
T - tapping
S - slap
P - pop
< - fade in
^ - brush up
v - brush down

Leave a Comment

Your email address will not be published. Required fields are marked *

Scroll to Top