Smile

Tabbed by: 6METAL6BASSIST6
E-mail: [email protected]

Tuning: EADG

G|----------------------------------------------------------------|
D|----------------------------------------------------------------|
A|5---------------5---------------2---------------2---------------|
E|----------------------------------------------------------------|

G|----------------------------------------------------------------|
D|2---------------2-----------------------------------------------|
A|--------------------------------0-----------0---0---------------|
E|----------------------------------------------------------------|

0:10

G|----------------------------------------------------------------|
D|----------------------------------------------------------------|
A|5---------------0---------------5---------------0---------------|
E|----------------------------------------------------------------|

G|----------------------------------------------------------------|
D|------------------------------------------------0---------------|
A|5---------------0---------------5-------------------------------|
E|----------------------------------------------------------------|

G|----------------------------------------------------------------|
D|4---------------4---------------3---------------3---------------|
A|----------------------------------------------------------------|
E|----------------------------------------------------------------|

G|----------------------------------------------------------------|
D|2---------------2-----------------------------------------------|
A|--------------------------------2---------------2---------------|
E|----------------------------------------------------------------|

0:30

G|----------------------------------------------------------------|
D|2-------------------------------2---------------2---------------|
A|----------------2-----------------------------------------------|
E|----------------------------------------------------------------|

G|----------------------------------------------------------------|
D|5---------------5-----------------------------------------------|
A|--------------------------------3---------------3---------------|
E|----------------------------------------------------------------|

G|----------------------------------------------------------------|
D|----------------------------------------------------------------|
A|5---------------0---------------5---------------5---------------|
E|----------------------------------------------------------------|

G|----------------------------------------------------------------|
D|2---------------2-----------------------------------------------|
A|--------------------------------0---------------0---------------|
E|----------------------------------------------------------------|

0:49

G|----------------------------------------------------------------|
D|----------------------------------------------------------------|
A|5---------------0---------------5---------------0---------------|
E|----------------------------------------------------------------|

G|----------------------------------------------------------------|
D|----------------------------------------------------------------|
A|5---------------0---------------5---------------5---------------|
E|----------------------------------------------------------------|

G|----------------------------------------------------------------|
D|4---------------4---------------3---------------3---------------|
A|----------------------------------------------------------------|
E|----------------------------------------------------------------|

G|----------------------------------------------------------------|
D|2---------------2-----------------------------------------------|
A|--------------------------------2---------------2---------------|
E|----------------------------------------------------------------|

1:09

G|----------------------------------------------------------------|
D|2-------------------------------2---------------2---------------|
A|----------------2-----------------------------------------------|
E|----------------------------------------------------------------|

G|----------------------------------------------------------------|
D|5---------------5-----------------------------------------------|
A|--------------------------------3---------------3---------------|
E|----------------------------------------------------------------|

G|----------------------------------------------------------------|
D|----------------------------------------------------------------|
A|5---------------5---------------2---------------2---------------|
E|----------------------------------------------------------------|

G|----------------------------------------------------------------|
D|2---------------2-----------------------------------------------|
A|--------------------------------0---------------0---------------|
E|----------------------------------------------------------------|

1:28

G|----------------------------------------------------------------|
D|----------------------------------------------------------------|
A|5---------------0---------------5---------------0---------------|
E|----------------------------------------------------------------|

G|----------------------------------------------------------------|
D|----------------------------------------------------------------|
A|5---------------0---------------5---------------5---------------|
E|----------------------------------------------------------------|

G|----------------------------------------------------------------|
D|4---------------4---------------3---------------3---------------|
A|----------------------------------------------------------------|
E|----------------------------------------------------------------|

G|----------------------------------------------------------------|
D|2---------------2-----------------------------------------------|
A|--------------------------------2---------------2---------------|
E|----------------------------------------------------------------|

1:47

G|----------------------------------------------------------------|
D|2-------------------------------2---------------2---------------|
A|----------------2-----------------------------------------------|
E|----------------------------------------------------------------|

G|----------------------------------------------------------------|
D|5---------------5-----------------------------------------------|
A|--------------------------------3---------------3---------------|
E|----------------------------------------------------------------|

G|----------------------------------------------------------------|
D|----------------------------------------------------------------|
A|5---------------5---------------2---------------2---------------|
E|----------------------------------------------------------------|

G|----------------------------------------------------------------|
D|2---------------2-----------------------------------------------|
A|--------------------------------0---------------0---------------|
E|----------------------------------------------------------------|

G|----------------------------------------------------|
D|--------------------------------5-------------------|
A|5---------------5-------------------------------0---|
E|----------------------------------------------------|

Leave a Comment

Your email address will not be published. Required fields are marked *

Scroll to Top