Solutions

||verso|| 
 
ela comeca com o riff na guitarra... 
 
e|-----0-------0-------0----------| 
b|---2---2---2---2---2---2---2----| 
G|-4-------4-------4-------4---4--| 
d|--------------------------------| 
a|--------------------------------| 
E|--------------------------------| 
 
depois entra o baixo... 
 
e|-------------------------------------------------| 
b|-------------------------------------------------| 
G|-------------------------------------------------| 
d|-------------------------------------------------| 
a|-4-4-4-4-4-4-4-4-3-3-3-2-2-0-0-0-0-0-0-----------| 
E|---------------------------------------3-3-3-3-3-| 
 
||refrao|| 
 
e|------------------------------------------------| 
b|------------------------------------------------| 
G|----------7-7-7--8-8--4-4-----------------------| 
d|-4-4-4-4--7-7-7------------7-7-7--5-5--7--5-5-5-| 
a|-4-4-4-4--5-5-5--6-6--2-2--7-7-7--5-5--7--5-5-5-| 
E|-2-2-2-2-------------------5-5-5--3-3--5--3-3-3-| 
 
e|------------------------------------------| 
b|------------------------------------------| 
G|----------6-6--9-9-9-----------6-6--9-9-9-| 
d|-4-4-4-4--6-6--9-9-9--4-4-4-4--6-6--9-9-9-| 
a|-4-4-4-4--4-4--7-7-7--4-4-4-4--4-4--7-7-7-| 
E|-2-2-2-2--------------2-2-2-2-------------| 
 
no final ela termina com o baixo assim... 
 
e|----------------------------------------------------| 
b|----------------------------------------------------| 
G|----------------------------------------------------| 
d|----------------------------------------------------| 
a|-4-4-4-4-4-4-4-4-4-4-3-3-3-3-2-2-2-0-0-0------------| 
E|------------------------------------------3-3-3-3-2-| 
 

Leave a Comment

Your email address will not be published. Required fields are marked *

Scroll to Top