Someday

VERSE1
Bm                  G            A
How the hell did we wind up like this
    D
Why weren't we able
Bm         G             A
To see the signs that we missed
           D
And try to turn the tables
Bm               G             A
I wish you would unclench your fists
      D
And unpack your suitcase
Bm                  G           A
Lately there's been too much of this
     D
Dont think its too late
 
PRECHORUS
E5
Nothin's wrong, just as long as
A5
you know that someday I will
G5       D5
Someday, somehow
A5               E5
gonna make it allright but not right now
G5            A5        E5
I know you're wondering when
                 A5
(You're the only one who knows that)
G5       D5
Someday, somehow
A5               E5
gonna make it allright but not right now
G5            A5        E5
I know you're wondering when 
VERSE2
       Bm                     G          A
Well I hoped that since we're here anyway
         D
We could end up saying
Bm                  G             A
Things we've always needed to say
            D
So we could end up stringing
Bm              G               A
Now the story's played out like this
            D
Just like a paperback novel
Bm              G           A
Lets rewrite an ending that fits
             D
Instead of a hollywood horror
 
PRECHORUS
E5
Nothin's wrong, just as long as
A5
you know that someday I will
 
CHORUS
G5       D5
Someday, somehow
A5               E5
gonna make it allright but not right now
G5            A5        E5
I know you're wondering when
(You're the only one who knows that)
G5       D5
Someday, somehow
A5               E5
gonna make it allright but not right now
G5            A5        E5
I know you're wondering when
(You're the only one who knows that)
 
SOLO
  G5      D5               A5       E5       G5      A5          E5
E ----------------------------------------------------------------------------------------------
B ----------------------------------------------------------------------------------------------
G ----------------------------------------------------------------------------------------------
D ------9-9-11h12p11----9----9-11h12p11----9------9-----9/11-9---9-9-11-12-------11-12----------
A ---12--------------12-----------------12-----12--------------------------10-10----------------
E 10----------------------12----------------10-------12-----------------------------------------
 
G5        D5             A5         E5                          G5       A5    E5
E ----------------------------------------------------------------------------------------------
B ----------------------------------------------------------------------------------------------
G ----------------------------------------------------------------------------------------------
D 9-9-11-12----14-11-12----9-9-11-12-------16-16-12-12-14-14---12-9-11-12----16/9---------------
A ----------12------------------------12-12--------------------------------12-------------------
E ----------------------------------------------------------------------------------------------
 
VERSE3
Bm                  G            A
How the hell did we wind up like this
    D
Why weren't we able
Bm         G             A
To see the signs that we missed
           D
And try to turn the tables
Bm              G               A
Now the story's played out like this
            D
Just like a paperback novel
Bm              G           A
Lets rewrite an ending that fits
             D
Instead of a hollywood horror
 
PRECHORUS
E5
Nothin's wrong, just as long as
A5
you know that someday I will
 
G5       D5
Someday, somehow
A5               E5
gonna make it allright but not right now
G5            A5        E5
I know you're wondering when
(You're the only one who knows that)
G5       D5
Someday, somehow
A5               E5
gonna make it allright but not right now
G5            A5        E5
I know you're wondering when
(You're the only one who knows that)
 
OUTTRO
G5            A5        E5
I know you're wondering when
(You're the only one who knows that)
G5            A5        E5
I know you're wondering when

Leave a Comment

Your email address will not be published. Required fields are marked *

Scroll to Top