Stables (The Legend of Zelda: Breath of the Wild) Guitar Tab

Stables
Legend of Zelda: Breath of the Wild
Composed by Yasuaki Iwata
Tabbed by hslesperance
6/23/17

Standard Tuning


Guitar 1

   H.                H.                H.                H.
|-----------------|-----------------|-----------------|-----------------|
|-----------------|-----------------|-----------------|-----------------|
|-----------------|-----------------|-----------------|-----------------|
|-----------------|-----------------|-----------------|-----------------|
|-----------------|-----------------|-----------------|-----------------|
|-----------------|-----------------|-----------------|-----------------|


  H.               H.                H.               H.
|---------------|-----------------|----------------|--------------|
|---------------|-----------------|----------------|--------------|
|---------------|-----------------|----------------|--------------|
|---------------|-----------------|----------------|--------------|
|---------------|-----------------|----------------|--------------|
|---------------|-----------------|----------------|--------------|

                          ~~~                                      ~~~
   Q    Q    S E   T T    H.                Q    Q    S E   T T    H.
|------------5h7---9p7p|==5--------------|------------5h7---9p7p|==5-------------|
|--7----8--------------|-----------------|--7----8--------------|----------------|
|----------------------|-----------------|----------------------|----------------|
|----------------------|-----------------|----------------------|----------------|
|----------------------|-----------------|----------------------|----------------|
|----------------------|-----------------|----------------------|----------------|

           ~~                       ~                 ~~~~~~            ~~~
   E S T T Q.      E    E E  S  T T Q   E    Q    E T T +E     T T E    H.
|-10-7-9p7p5-------7-|--------------------|--------------------------|--------------|
|--------------------|-10-7---------------|-------7------------------|--------------|
|--------------------|-------9h11p9p7-----|--9------9p7-(7)----9p7p6-|--7-----------|
|--------------------|--------------------|--------------------------|--------------|
|--------------------|--------------------|--------------------------|--------------|
|--------------------|--------------------|--------------------------|--------------|

                                             ~~~
   H.                 Q    Q    S E   T T    H.                 Q    Q    S E   T T
|------------------|------------5h7---9p7p|==5---------------|------------5h7---9p7p=|
|------------------|--7----8--------------|------------------|--7----8---------------|
|------------------|----------------------|------------------|-----------------------|
|------------------|----------------------|------------------|-----------------------|
|------------------|----------------------|------------------|-----------------------|
|------------------|----------------------|------------------|-----------------------|

   ~~~
   H.               H.                  H.                   H.
|--5-------------|------------------|--------------------|---------------|
|----------------|------------------|--------------------|---------------|
|----------------|------------------|--------------------|---------------|
|----------------|------------------|--------------------|---------------|
|----------------|------------------|--------------------|---------------|
|----------------|------------------|--------------------|---------------|

                         ~~~                                     ~~~
   Q   Q    S E   T T    H.                Q   E.     T T Q      H.
|-----------5h7---9p7p|==5--------------|---------------------|--------*|
|--7---8--------------|-----------------|--7---8-----10p7-----|--------*|
|---------------------|-----------------|-----------------9---|--7-----*|
|---------------------|-----------------|---------------------|--------*|
|---------------------|-----------------|---------------------|--------*|
|---------------------|-----------------|---------------------|--------*|




Guitar 2

   E  E  Q    Q      E  E  Q    Q      E  E  Q    Q      H          Q
|-10--7-----------|-10--7-----------|-10--7-------7---|-----------------|
|-------10--------|-------10--------|-------10--------|-10--------------|
|-----------------|-----------------|-----------------|-----------------|
|-----------------|-----------------|-----------------|-----------------|
|-----------------|-----------------|-----------------|-----------------|
|-----------------|-----------------|-----------------|-----------------|


  Q     Q   Q      Q     Q    Q      H         Q      E  E  Q  Q
|---------------|--9-----7--------|-10--------10---|--9--7--------|
|-7-----6---7---|-----------------|----------------|-------10-----|
|---------------|-----------------|----------------|--------------|
|---------------|-----------------|----------------|--------------|
|---------------|-----------------|----------------|--------------|
|---------------|-----------------|----------------|--------------|


   E E  Q    Q            E  E  Q    Q      E E  Q    Q            H         Q
|-10-7-----------------|-10--7-----------|-10-7-------7---------|----------------|
|------10--------------|-------10--------|------10--------------|-10-------------|
|----------------------|-----------------|----------------------|----------------|
|----------------------|-----------------|----------------------|----------------|
|----------------------|-----------------|----------------------|----------------|
|----------------------|-----------------|----------------------|----------------|


   Q       Q     Q      Q    Q        Q      H               Q          H       Q
|--------------------|--9---10------------|-10--------------12-------|-10-----------|
|--7-------6-----7---|--------------------|--------------------------|--------------|
|--------------------|--------------------|--------------------------|--------------|
|--------------------|--------------------|--------------------------|--------------|
|--------------------|--------------------|--------------------------|--------------|
|--------------------|--------------------|--------------------------|--------------|


   E  E  Q.      E    H         Q            E  E  Q.      E    H         Q
|-10--7----------7-|----------------------|-10--7----------7-|-----------------------|
|-------10---------|-10-------------------|-------10---------|-10--------------------|
|------------------|----------------------|------------------|-----------------------|
|------------------|----------------------|------------------|-----------------------|
|------------------|----------------------|------------------|-----------------------|
|------------------|----------------------|------------------|-----------------------|


   Q     Q   Q      Q     Q    Q        H        +S   E.    +Q    Q   Q
|----------------|--9----10---------|--10-------(10)-----|---------------|
|--7-----6---7---|------------------|----------------11--|-(11)--10---8--|
|----------------|------------------|--------------------|---------------|
|----------------|------------------|--------------------|---------------|
|----------------|------------------|--------------------|---------------|
|----------------|------------------|--------------------|---------------|


   H        Q            E  E  Q.     E    H              Q      H.
|---------------------|-10--7---------7-|---------------------|--------*|
|-10------------------|-------10--------|-10------------------|--------*|
|---------------------|-----------------|---------------------|--------*|
|---------------------|-----------------|---------------------|--------*|
|---------------------|-----------------|---------------------|--------*|
|---------------------|-----------------|---------------------|--------*|




Guitar 3

  E E E E  E E   E E +E  E E E   E E E E  E E   E E +E  E E E
|--------------|---------------|--------------|---------------|
|----------8---|-7-------------|----------8---|-7-------------|
|-7---9--------|-----------7---|-7---9--------|-----------7---|
|---7---7/---7-|---7-(7)-7---7-|---7---7/---7-|---7-(7)-7---7-|
|--------------|---------------|--------------|---------------|
|--------------|---------------|--------------|---------------|


  E E  E E E E    E E +E  E E E   E E E E E E    E E H
|----------7---|----------------|-------------|-------------|
|-----10-------|-10-------------|-8---7---8---|-10----------|
|-7------------|------------7---|-------------|------9------|
|---7----7---7-|----7-(7)-7---7-|---7---7---7-|----7--------|
|--------------|----------------|-------------|-------------|
|--------------|----------------|-------------|-------------|


  E E E E  E E   E E +E  E E E   E E E E  E E   E E  E E E E
|--------------|---------------|--------------|-----10---9---|
|----------8---|-7-------------|----------8---|-7------------|
|-7---9--------|-----------7---|-7---9--------|--------------|
|---7---7/---7-|---7-(7)-7---7-|---7---7/---7-|---7----7---7-|
|--------------|---------------|--------------|--------------|
|--------------|---------------|--------------|--------------|


  E E E E  E E   E E  E E E E   E E  E E E E   E E H
|-7---9---10---|-9------------|--------------|------------|
|--------------|-----10---7---|-8---10---8---|-8---7------|
|--------------|--------------|--------------|------------|
|---7---7----7-|---7----7---7-|---7----7---7-|---7--------|
|--------------|--------------|--------------|------------|
|--------------|--------------|--------------|------------|


  E E E E  E E    E E +E  E E E   E E E E  E E    E E +E  E E E
|----------7---|----------------|----------7---|----------------|
|-7---8----8---|-10-------------|-7---8----8---|-10---------7---|
|-7---9--------|-11---------7---|-7---9--------|-11-----------7-|
|---7---7/---7-|----7-(7)-7---7-|---7---7/---7-|----7-(7)-7-----|
|--------------|----------------|--------------|----------------|
|--------------|----------------|--------------|----------------|


   E E  E E E E    E E E E +Q       Q.      E.  E.   +Q.     E Q
|-10-7--------7-|---------------|------------------|--------------|
|------10---7---|-10-7----------|-----------7------|--------------|
|---------7-----|------9-7-(7)-|-^-9-----------7--|-(7)-------6--|
|---------------|------7--------|-^-8--------------|--------------|
|---------------|---------------|-^10--------------|--------------|
|---------------|---------------|------------------|--------------|


  E E E E  E E   E E +E  E E E   E E E E  E E    H.
|--------------|---------------|--------------|--------*|
|----------8---|-7-------------|----------8---|-^7-----*|
|-7---9--------|-----------7---|-7---9--------|-^7-----*|
|---7---7/---7-|---7-(7)-7---7-|---7---7/---7-|-^7-----*|
|--------------|---------------|--------------|--------*|
|--------------|---------------|--------------|--------*|

h - hammer on
p - pull off

H - half
Q - quarter
E - 8th
S - 16th
T - 32nd
+ - note tied to previous
. - note dotted

Leave a Comment

Your email address will not be published. Required fields are marked *

Scroll to Top