Stardust Speedway (Past) (Sonic CD (U.S.)) Guitar Tab

Stardust Speedway (Past) Guitar Tab
Tabbed by: Strummer

Saxophone lead:
       
e----------------------------------------------------------------------------------
B-------4h7-9-9-9----7-7-7---------------------------------------------------------
G----4h6----------------------9-9-9----7-7-7---------------------------------------
D-4h6-------------------------------------------11-9-11-9----------------9---------
A--------------------------------------------------------------9-11-9-11---11-9-11-
E----------------------------------------------------------------------------------

e----------------------------------------------------------------------------------
B-9-9-9----7-7-7-------------------------------------------------------------------
G-------------------9-9-9----7-7-7-------------------------------------------------
D-----------------------------------------11-9-11-9------------------9-------------
A----------------------------------------------------------9-11-9-11---11-9-11-----
E----------------------------------------------------------------------------------

(Organ part over bass)

Piano before loop:

e-11-9-------------------------11-12--11--9----------- x4
B------11--9----------------------------------12-11-9-
G--------------10-10-11-------------------------------
D-----------------------------------------------------
A-----------------------------------------------------
E-----------------------------------------------------

Leave a Comment

Your email address will not be published. Required fields are marked *

Scroll to Top