Still More Fighting (Final Fantasy VII) Guitar Tab

Guitar 1

      |--3--|       |--3--|        
      E  E  E  Q    E  E  E  Q     
E||-------------------------------|
B||-------------------------------|
G||*------------------------------|
D||*-----------5-------------7----|
A||---0--0--0--3----0--0--0--5----|
E||-------------------------------|


  |--3--|  |--3--|  |--3--|         
  E  E  E  E  E  E  E  E  E  E.  S  
-----------------------------------|
-----------------------------------|
-----------------------------------|
-----------------------------------|
--0--0--0--6--5-----5--------------|
-----------------8-----8--7--8---7-|


  |--3--|       |--3--|        
  E  E  E  Q    E  E  E  Q     
------------------------------|
------------------------------|
------------------------------|
-----------5-------------7----|
--0--0--0--3----0--0--0--5----|
------------------------------|


  |--3--|  |--3--|  |--3--|         
  E  E  E  E  E  E  E  E  E  E.  S  
-----------------------------------|
-----------------------------------|
-----------------------------------|
-----------------------------------|
--0--0--0--6--5-----5--------------|
-----------------8-----8--7--8---7-|


  |--3--|       |--3--|         
  E  E  E  Q    E  E  E   Q     
-------------------------------|
-------------------------------|
-------------------------------|
-----------8-------------10----|
-----------6--------------8----|
--8--8--8-------8--8--8--------|


  |--3--|  |---3--|  |---3---|           
  E  E  E  E  E   E  E   E   E   E.   S  
----------------------------------------|
----------------------------------------|
----------------------------------------|
----------------------------------------|
-----------9--8------8------------------|
--8--8--8--------11-----11--10--11---10-|


  |--3--|       |--3--|         
  E  E  E  Q    E  E  E   Q     
-------------------------------|
-------------------------------|
-------------------------------|
-----------8-------------10----|
-----------6--------------8----|
--8--8--8-------8--8--8--------|


  |--3--|  |---3--|  |---3---|           
  E  E  E  E  E   E  E   E   E   E.   S  
----------------------------------------|
----------------------------------------|
----------------------------------------|
----------------------------------------|
-----------9--8------8------------------|
--8--8--8--------11-----11--10--11---10-|


  |--3--|       |--3--|        
  E  E  E  Q    E  E  E  Q     
------------------------------|
------------------------------|
------------------------------|
-----------5-------------7----|
--0--0--0--3----0--0--0--5----|
------------------------------|


  |--3--|  |--3--|  |--3--|         
  E  E  E  E  E  E  E  E  E  E.  S  
-----------------------------------|
-----------------------------------|
-----------------------------------|
-----------------------------------|
--0--0--0--6--5-----5--------------|
-----------------8-----8--7--8---7-|


  |--3--|       |--3--|        
  E  E  E  Q    E  E  E  Q     
------------------------------|
------------------------------|
------------------------------|
-----------5-------------7----|
--0--0--0--3----0--0--0--5----|
------------------------------|


  |--3--|  |--3--|  |--3--|         
  E  E  E  E  E  E  E  E  E  E.  S  
-----------------------------------|
-----------------------------------|
-----------------------------------|
-----------------------------------|
--0--0--0--6--5-----5--------------|
-----------------8-----8--7--8---7-|


  |--3--|       |--3--|         
  E  E  E  Q    E  E  E   Q     
-------------------------------|
-------------------------------|
-------------------------------|
-----------8-------------10----|
-----------6--------------8----|
--8--8--8-------8--8--8--------|


  |--3--|  |---3--|  |---3---|           
  E  E  E  E  E   E  E   E   E   E.   S  
----------------------------------------|
----------------------------------------|
----------------------------------------|
----------------------------------------|
-----------9--8------8------------------|
--8--8--8--------11-----11--10--11---10-|


  |--3--|       |--3--|         
  E  E  E  Q    E  E  E   Q     
-------------------------------|
-------------------------------|
-------------------------------|
-----------8-------------10----|
-----------6--------------8----|
--8--8--8-------8--8--8--------|


  |--3--|  |---3--|  |---3---|           
  E  E  E  E  E   E  E   E   E   E.   S  
----------------------------------------|
----------------------------------------|
----------------------------------------|
----------------------------------------|
-----------9--8------8------------------|
--8--8--8--------11-----11--10--11---10-|


           |---3---|   |---3---|   |---3---| 
   E.   S  E   E   E   E   E   E   E   E   E 
---------------------------------------------
----------------------------------12---------
--14--------------14--13--------------13-----
-------14-----14----------15--14----------14-
----------15---------------------------------
---------------------------------------------


           |---3---|   |---3---|   |---3---| 
   E.   S  E   E   E   E   E   E   E   E   E 
---------------------------------------------
----------------------------------15---------
--17--------------17--16--------------16-----
-------17-14--17--------------17----------17-
--------------------------17-----------------
---------------------------------------------


   H.           Q       H        H         
----------------8----|--8--------7--------|
--13------------8----|--6--------5--------|
--14-----------------|--------------------|
--15-----------------|--------------------|
---------------------|--------------------|
---------------------|--------------------|


   Q     Q    H           W                 
---8------------------|-------------------|
--10------------------|-------------------|
-----------------------|-------------------|
-----------------------|-------------------|
-----------------------|-------------------|
-----------------------|-------------------|


          |---3---|   |---3---|   |---3---|  
   E.  S  E   E   E   E   E   E   E   E   E  
---------------------------------------------
---------------------------------12----------
--14-------------14--13--------------13------
-------------14----------15--14----------14--
---------15----------------------------------
---------------------------------------------


           |---3---|   |---3---|   |---3---| 
   E.   S  E   E   E   E   E   E   E   E   E 
---------------------------------------------
----------------------------------15---------
--17--------------17--16--------------16-----
-------17-14--17--------------17----------17-
--------------------------17-----------------
---------------------------------------------


   H.           Q       H        H         
----------------8----|--8--------7--------|
--13------------8----|--6--------5--------|
--14-----------------|--------------------|
--15-----------------|--------------------|
---------------------|--------------------|
---------------------|--------------------|


   Q     Q    H           W                 
---8------------------|-------------------|
--10------------------|-------------------|
-----------------------|-------------------|
-----------------------|-------------------|
-----------------------|-------------------|
-----------------------|-------------------|


  |---3--|  |---3--|   |--3--|  |--3--|   
  E  E   E  E   E  E   E  E  E  E  E  E   
-----------------------------------------|
--------------------------------7--------|
------------7-------------7--9-----9--7--|
--7--9--10-----10--9--10-----------------|
-----------------------------------------|
-----------------------------------------|


  |---3--|  |---3--|   |--3--|  |--3--|   
  E  E   E  E   E  E   E  E  E  E  E  E   
-----------------------------------------|
-----------------------------------------|
--9--7------7-------------------------7--|
--------10-----10--9--10--9--7--6--9-----|
-----------------------------------------|
-----------------------------------------|


  |---3--|  |---3--|   |--3--|  |--3--|   
  E  E   E  E   E  E   E  E  E  E  E  E   
-----------------------------------------|
--------------------------------7--------|
------------7-------------7--9-----9--7--|
--7--9--10-----10--9--10-----------------|
-----------------------------------------|
-----------------------------------------|


  |---3--|  |--3--|   |--3--|         
  E   E  E  E  E  E   E  E  E  Q      
-------------------------------------|
-------------------------------------|
--9---------------7------------------|
-----10--7--6--9-----10--7--6--7~----|
-------------------------------------|
-------------------------------------|


  |---3--|  |---3--|   |--3--|  |--3--|   
  E  E   E  E   E  E   E  E  E  E  E  E   
-----------------------------------------|
--------------------------------7--------|
------------7-------------7--9-----9--7--|
--7--9--10-----10--9--10-----------------|
-----------------------------------------|
-----------------------------------------|


  |---3--|  |---3--|   |--3--|  |--3--|   
  E  E   E  E   E  E   E  E  E  E  E  E   
-----------------------------------------|
-----------------------------------------|
--9--7------7-------------------------7--|
--------10-----10--9--10--9--7--6--9-----|
-----------------------------------------|
-----------------------------------------|


  |---3--|  |---3--|   |--3--|  |--3--|   
  E  E   E  E   E  E   E  E  E  E  E  E   
-----------------------------------------|
--------------------------------7--------|
------------7-------------7--9-----9--7--|
--7--9--10-----10--9--10-----------------|
-----------------------------------------|
-----------------------------------------|


  |---3--|  |--3--|   |--3--|         
  E   E  E  E  E  E   E  E  E  Q      
-------------------------------------|
-------------------------------------|
--9---------------7------------------|
-----10--7--6--9-----10--7--6--7~----|
-------------------------------------|
-------------------------------------|


   H         Q     Q     
------------------------|
------------------------|
------------------------|
---9--------10----12----|
--10--------12----14----|
------------------------|


   W                 
--------------------|
--------------------|
--------------------|
--14----------------|
--15----------------|
--------------------|


  Q    Q     Q     Q     
--7----7-----8----10----|
--8----8----10----12----|
------------------------|
------------------------|
------------------------|
------------------------|


   W                 
--12----------------|
--13----------------|
--------------------|
--------------------|
--------------------|
--------------------|


   H         Q     Q     
------------------------|
------------------------|
------------------------|
--11--------12----14----|
--12--------14----16----|
------------------------|


   W                 
--------------------|
--------------------|
--------------------|
--15----------------|
--17----------------|
--------------------|


   Q     Q     Q     Q     
--14----14----15----17----|
--15----15----17----19----|
--------------------------|
--------------------------|
--------------------------|
--------------------------|


   W                 
--13----------------|
--11----------------|
--------------------|
--------------------|
--------------------|
--------------------|


  |--3--|            |---3---|   
  E  E  E   H        E   E   E   
--------------------------------|
-----------10--------8--10--11--|
--7-----7-----------------------|
--------------------------------|
--------------------------------|
--------------------------------|


                     |---3--|   
   Q     Q     Q     E  E   E   
-------------------------------|
--10---------------------------|
--------10----12----10--9------|
---------------------------12--|
-------------------------------|
-------------------------------|


  |---3--|             |---3--|   
  E  E   E   H         E   E  E   
---------------------------------|
---------------------------------|
--9---------------------------9--|
--------10--12--------10--12-----|
---------------------------------|
---------------------------------|


   H.           Q     
---------------------|
---------------------|
---------------------|
--12-----------------|
---------------------|
---------------------|


  |--3--|           |---3--|   
  E  E  E  H        E  E   E   
------------------------------|
------------------------------|
-----------9--------7--9--10--|
--7-----7---------------------|
------------------------------|
------------------------------|


                    |---3--|   
  Q     Q     Q     E  E   E   
------------------------------|
------------------------------|
--9---------------------------|
-------10----12----10--9------|
--------------------------12--|
------------------------------|


  |---3--|             |---3--|   
  E  E   E   H         E   E  E   
---------------------------------|
---------------------------------|
---------------------------------|
--9---------------------------9--|
--------10--12--------10--12-----|
---------------------------------|


   H.           Q     
---------------------|
---------------------|
---------------------|
---------------------|
--12-----------------|
---------------------|


  |--3--|            |---3---|   
  E  E  E   H        E   E   E   
--------------------------------|
-----------10--------8--10--11--|
--7-----7-----------------------|
--------------------------------|
--------------------------------|
--------------------------------|


                     |---3--|   
   Q     Q     Q     E  E   E   
-------------------------------|
--10---------------------------|
--------10----12----10--9------|
---------------------------12--|
-------------------------------|
-------------------------------|


  |---3--|             |---3--|   
  E  E   E   H         E   E  E   
---------------------------------|
---------------------------------|
--9---------------------------9--|
--------10--12--------10--12-----|
---------------------------------|
---------------------------------|


   H.           Q     
---------------------|
---------------------|
---------------------|
--12-----------------|
---------------------|
---------------------|


  |--3--|           |---3--|   
  E  E  E  H        E  E   E   
------------------------------|
------------------------------|
-----------9--------7--9--10--|
--7-----7---------------------|
------------------------------|
------------------------------|


                    |---3--|   
  Q     Q     Q     E  E   E   
------------------------------|
------------------------------|
--9---------------------------|
-------10----12----10--9------|
--------------------------12--|
------------------------------|


   |---3---|   |---3---|   |---3---|   |---3-
   E   E   E   E   E   E   E   E   E   E   E 
----------------------12--14--10-------------
------------------13--------------10---------
--------------12----------------------11-----
------10--14------------------------------12-
--10-----------------------------------------
---------------------------------------------


   |---3---|   |---3---|   |---3---|   |---3-
   E   E   E   E   E   E   E   E   E   E   E 
----------------------15--16--12-------------
--------------12--15--------------12---------
----------12--------------------------13-----
------12----------------------------------14-
--10-----------------------------------------
---------------------------------------------


   |---3---|   |---3---|   |---3---|   |---3-
   E   E   E   E   E   E   E   E   E   E   E 
----------------------12--17--12-------------
------------------13--------------15---------
--------------14----------------------14-----
----------14------------------------------14-
--12--15-------------------------------------
---------------------------------------------


   |---3---|   |---3---|   |---3---|         
   E   E   E   E   E   E   E   E   E   Q     
---------------------------------------------
---------------------------------------------
--------------14----------------------------*
----------14------14-------------------------
--12--15--------------15--12----------12-----
------------------------------15--12---------





Guitar 2

E||--------|-------|-------|-------|-------|
B||--------|-------|-------|-------|-------|
G||*-------|-------|-------|-------|-------|
D||*-------|-------|-------|-------|-------|
A||--------|-------|-------|-------|-------|
E||--------|-------|-------|-------|-------|

  W                 
-------------------|
-------------------|
-------------------|
-------------------|
--7----------------|
--5----------------|


           |----3----|     
  H        Q    Q    Q     
--------------------------|
--------------------------|
--------------------------|
--------------------------|
-----------9----9----9----|
--L--------7----7----7----|


  W                 
-------------------|
-------------------|
-------------------|
-------------------|
--7----------------|
--5----------------|


           |----3----|     
  H        Q    Q    Q     
--------------------------|
--------------------------|
--------------------------|
--------------------------|
--L--------9----9----9----|
-----------7----7----7----|


  W                 
-------------------|
-------------------|
-------------------|
--5----------------|
--3----------------|
-------------------|


           |----3----|     
  H        Q    Q    Q     
--------------------------|
--------------------------|
--------------------------|
--L--------7----7----7----|
-----------5----5----5----|
--------------------------|


  W                 
-------------------|
-------------------|
-------------------|
--5----------------|
--3----------------|
-------------------|


           |----3----|     
  H        Q    Q    Q     
--------------------------|
--------------------------|
--------------------------|
--L--------7----7----7----|
-----------5----5----5----|
--------------------------|


  H        H            H         H         
--------------------|----------------------|
--------------------|----------------------|
--------------------|----------------------|
--------------------|----------------------|
--7--------9--------|--10--------12--------|
--5--------7--------|---8--------10--------|


  H.           Q       H        H         
--------------------|--------------------|
--------------------|--------------------|
--------------------|--------------------|
--------------------|--------------------|
--3------------5----|--7--------6--------|
--1------------3----|--5--------4--------|


  W                   W                 
-------------------|-------------------|
-------------------|-------------------|
-------------------|-------------------|
-------------------|-------------------|
--7----------------|--L----------------|
--5----------------|-------------------|


  H        H            H         H         
--------------------|----------------------|
--------------------|----------------------|
--------------------|----------------------|
--------------------|----------------------|
--7--------9--------|--10--------12--------|
--5--------7--------|---8--------10--------|


  H.           Q       H        H         
--------------------|--------------------|
--------------------|--------------------|
--------------------|--------------------|
--------------------|--------------------|
--3------------5----|--7--------6--------|
--1------------3----|--5--------4--------|


  W                   W                 
-------------------|-------------------|
-------------------|-------------------|
-------------------|-------------------|
-------------------|-------------------|
--7----------------|--L----------------|
--5----------------|-------------------|


  PM PM PM PM PM PM    PM       
  |--3--|  |--3--|              
  E  E  E  E  E  E  E  E  Q     
-------------------------------|
-------------------------------|
-------------------------------|
-------------------------------|
--7--7--7--7--7--7--7--7-------|
--5--5--5--5--5--5--5--5-------|


  PM PM PM PM PM PM    PM       
  |--3--|  |--3--|              
  E  E  E  E  E  E  E  E  Q     
-------------------------------|
-------------------------------|
-------------------------------|
-------------------------------|
--7--7--7--7--7--7--7--7-------|
--5--5--5--5--5--5--5--5-------|


  PM PM PM PM PM PM    PM       
  |--3--|  |--3--|              
  E  E  E  E  E  E  E  E  Q     
-------------------------------|
-------------------------------|
-------------------------------|
-------------------------------|
--7--7--7--7--7--7--7--7-------|
--5--5--5--5--5--5--5--5-------|


  PM PM PM PM PM PM    PM       
  |--3--|  |--3--|              
  E  E  E  E  E  E  E  E  Q     
-------------------------------|
-------------------------------|
-------------------------------|
-------------------------------|
--7--7--7--7--7--7--7--7-------|
--5--5--5--5--5--5--5--5-------|


  PM PM PM PM PM PM    PM       
  |--3--|  |--3--|              
  E  E  E  E  E  E  E  E  Q     
-------------------------------|
-------------------------------|
-------------------------------|
-------------------------------|
--7--7--7--7--7--7--7--7-------|
--5--5--5--5--5--5--5--5-------|


  PM PM PM PM PM PM    PM       
  |--3--|  |--3--|              
  E  E  E  E  E  E  E  E  Q     
-------------------------------|
-------------------------------|
-------------------------------|
-------------------------------|
--7--7--7--7--7--7--7--7-------|
--5--5--5--5--5--5--5--5-------|


  PM PM PM PM PM PM    PM       
  |--3--|  |--3--|              
  E  E  E  E  E  E  E  E  Q     
-------------------------------|
-------------------------------|
-------------------------------|
-------------------------------|
--7--7--7--7--7--7--7--7-------|
--5--5--5--5--5--5--5--5-------|


  PM PM PM PM PM PM    PM       
  |--3--|  |--3--|              
  E  E  E  E  E  E  E  E  Q     
-------------------------------|
-------------------------------|
-------------------------------|
-------------------------------|
--7--7--7--7--7--7--7--7-------|
--5--5--5--5--5--5--5--5-------|


  H        Q    Q        W                 
---------------------|--------------------|
---------------------|--------------------|
---------------------|--------------------|
--5--------7----9----|--10----------------|
--5--------7----9----|--10----------------|
--3--------5----7----|---8----------------|


  Q    Q    Q    Q        W                 
----------------------|--------------------|
----------------------|--------------------|
----------------------|--------------------|
--5----5----7----9----|--10----------------|
--5----5----7----9----|--10----------------|
--3----3----5----7----|---8----------------|


  H        Q    Q       W                 
---------------------|-------------------|
---------------------|-------------------|
--2--------4----6----|--7----------------|
--2--------4----6----|--7----------------|
--0--------2----4----|--5----------------|
---------------------|-------------------|


  Q    Q    Q    Q       W                 
----------------------|-------------------|
----------------------|-------------------|
--2----2----4----6----|--3----------------|
--2----2----4----6----|--3----------------|
--0----0----2----4----|--1----------------|
----------------------|-------------------|


  Guitar harmony part. top and bottom seperat
  H                                          
---------------------------------------------
---------------------------------------------
---------------------------------------------
--0------------------------------------------
---------------------------------------------
--5------------------------------------------


  H        H           Q    H        Q     
--------------------|---------------------|
--------------------|-------1--------0----|
--------------------|--2----2--------0----|
--3--------5--------|--3------------------|
--5--------3--------|---------------------|
--------------------|---------------------|


  W                   H        H         
-------------------|--------------------|
-------------------|--------------------|
--2----------------|--------------------|
--3----------------|--------------------|
-------------------|--0--------2--------|
-------------------|--0--------7--------|


  H        H           Q    H        Q     
--------------------|---------------------|
--------------------|---------------------|
--------------------|---------------------|
--------------------|--2----5--------4----|
--3--------5--------|-------7--------5----|
--5--------7--------|--8------------------|


  W                 
-------------------|
-------------------|
-------------------|
--2----------------|
-------------------|
--8----------------|


  Guitar harmony part. top and bottom seperat
  H                                          
---------------------------------------------
---------------------------------------------
---------------------------------------------
--0------------------------------------------
---------------------------------------------
--5------------------------------------------


  H        H           Q    H        Q     
--------------------|---------------------|
--------------------|-------1--------0----|
--------------------|--2----2--------0----|
--3--------5--------|--3------------------|
--5--------3--------|---------------------|
--------------------|---------------------|


  W                   H        H         
-------------------|--------------------|
-------------------|--------------------|
--2----------------|--------------------|
--3----------------|--7--------9--------|
-------------------|--7--------5--------|
-------------------|--------------------|


           triple guitar harmony  
  H        H                      
---------------------------------|
-----------0---------------------|
--5--------7---------------------|
--7--------5---------------------|
---------------------------------|
---------------------------------|


  H        H           H        H         
-----------2--------|--3--------4--------|
--1-----------------|--------------------|
--9--------7--------|--7--------7--------|
--5--------7--------|--9--------9--------|
--------------------|--------------------|
--------------------|--------------------|


   W                 
---5----------------|
--------------------|
---9----------------|
--10----------------|
--------------------|
--------------------|


   Q    Q    H           
---L-------------------||
-----------------------||
---L------------------*||
---L------------------*||
-----------------------||
-----------------------||

Leave a Comment

Your email address will not be published. Required fields are marked *

Scroll to Top