Sweden (Minecraft) Guitar Tab

Sweden / calm3
Minecraft
Composed by Daniel Rosenfeld
Arranged and tabbed by OggirtMoonfrad (Misha Colbourne)
06/07/2011


     H        H           H        H           H        H         
E||--------------------|--------------------|--------------------|
B||--------------------|--3-----------------|--------------------|
G||--0-----------------|--2-----------------|--2-----------------|
D||--2-----------------|--------------------|--4-----------------|
G||--------------------|--0--------4--------|--2--------0--------|
D||--2--------4--------|--------------------|--------------------|


  W                   H        H           H        H         
-------------------|--------------------|--2-----------------|
-------------------|--0-----------------|--3-----------------|
--6----------------|--0-----------------|--2-----------------|
--7----------------|--2-----------------|--------------------|
-------------------|--------------------|--0--------4--------|
--0----------------|--2--------4--------|--------------------|


  H        H           W                   H        H         
--------------------|-------------------|--------------------|
--2-----------------|--5----------------|--0-----------------|
--2-----------------|--6----------------|--0-----------------|
--4-----------------|--7----------------|--2-----------------|
--2--------0--------|-------------------|--------------------|
--------------------|--0----------------|--2--------4--------|


  H        H           H        H           W                 
--2-----------------|--------------------|-------------------|
--3-----------------|--2-----------------|--5----------------|
--2-----------------|--2-----------------|--6----------------|
--------------------|--4-----------------|--7----------------|
--0--------4--------|--2--------0--------|-------------------|
--------------------|--------------------|--0----------------|


  H        Q    Q       H        Q    E  E     H        Q    E   E   
-----------5----7----|--2----------------0--|----------------2h--5--|
--0------------------|--3-------------3-----|--2--------------------|
--0------------------|--2-------------------|--2--------------------|
--2------------------|----------------------|-----------------------|
---------------------|--0--------4-------L--|--2--------0--------L--|
--2--------4----L----|----------------------|-----------------------|


                             NH      NH     NH                           
  W                   Q      Q       Q      Q       H        Q    E  E   
-------------------|-----------------------------|--2----------------0--|
--5----------------|--0-----------<>12-----------|--3-------------3-----|
--6----------------|--0----<>7-------------------|--2-------------------|
--7----------------|--2-------------------<>7----|----------------------|
-------------------|-----------------------------|--0--------4-------L--|
--0----------------|--2--------------4------L----|----------------------|


  H        Q    E   E     W                   H        Q    Q     
----------------5p--2--|-------------------|-----------5----7----|
--2--------------------|--5----------------|--0------------------|
--2--------------------|--6----------------|--0------------------|
-----------------------|--7----------------|--2------------------|
--2--------0--------L--|-------------------|---------------------|
-----------------------|--0----------------|--2--------4----L----|


                   NH    NH                                                
   H        Q      E     E      H        Q     E   E     W                 
--10------------------<>12--|---9-------------10p--9--|--5----------------|
---7-------------<>7--------|--10---------------------|--5----------------|
---7------------------------|-------------------------|--6----------------|
---7------------------------|-------------------------|--7----------------|
---0------------------------|------------0------------|-------------------|
------------9------------L--|---7---------------------|--0----------------|


  H        Q    Q       H        Q    E  E     H        Q    E   E   
-----------7----5----|--2----------------0--|----------------2h--5--|
--0------------------|--3-------------3-----|--2--------------------|
--0------------------|--2-------------------|--2--------------------|
--2------------------|----------------------|-----------------------|
---------------------|--0--------4-------L--|--2--------0--------L--|
--2--------4----L----|----------------------|-----------------------|


  W                   H        Q    Q       H        Q    E  E   
-------------------|-----------5----7----|--2----------------0--|
--5----------------|--0------------------|--3-------------3-----|
--6----------------|--0------------------|--2-------------------|
--7----------------|--2------------------|----------------------|
-------------------|---------------------|--0--------4-------L--|
--0----------------|--2--------4----L----|----------------------|


  H        Q    E   E     W                   H        Q    Q     
----------------2h--5--|-------------------|-----------5----7----|
--2--------------------|--5----------------|--0------------------|
--2--------------------|--6----------------|--0------------------|
-----------------------|--7----------------|--2------------------|
--2--------0--------L--|-------------------|---------------------|
-----------------------|--0----------------|--2--------4----L----|


                                       NH                               
   H        Q    E   E      H          Q    E   E     W                 
--10--------------------|---9---------------2h--5--|-------------------|
---7--------------------|--10--------<>7-----------|--5----------------|
---7-------------7h--9--|--------------------------|--6----------------|
---7--------------------|--------------------------|--7----------------|
---0--------------------|--------------0--------L--|-------------------|
------------9-----------|---7----------------------|--0----------------|


  H.           E   E     H        Q    Q       H.           E  E   
--2------------7p--5--|--0--------0---------|------------------0--|
--2-------------------|--0-------------3----|--2------------3-----|
--2-------------------|--2------------------|--2------------------|
----------------------|---------------------|--2------------------|
----------------------|---------------------|--2------------------|
--4-------------------|--2------------------|---------------------|


                                                         NH     NH    
  W                   H.           E   E     H           Q      Q     
-------------------|--2------------7p--5--|--0--------<>12-----------|
--0----------------|--2-------------------|--0-----------------------|
--0----------------|--2-------------------|--1----------------<>7----|
--0----------------|----------------------|--------------------------|
--0----------------|----------------------|--------------------------|
-------------------|--4-------------------|--2-----------------------|


                             ^                  
  H         Q     E    E     W                  
--9--------10----14-------|--7----------------||
--------------------------|--0----------------||
--------------------------|--0----------------||
--7--------------12h--14--|--0----------------||
--------------------------|--0----------------||
--7-----------------------|-------------------||




Duration Legend
---------------
W - whole
H - half
Q - quarter
E - 8th
S - 16th
T - 32nd
X - 64th
. - note dotted
|-n-|  - n-tuplets


Tablature Legend
----------------
L - tied note
x - dead note
g - grace note
(n) - ghost note
> - accentuded note
NH - natural harmonic
AH - artificial harmonic
TH - tapped harmonic
SH - semi harmonic
PH - pitch harmonic
h - hammer on
p - pull off
b - bend
br - bendRelease
pb - preBend
pbr - preBendRelease
brb - bendReleaseBend
n/ - tremolo bar dip
n - tremolo bar dive
-/n - tremolo bar Release up
/n - tremolo bar inverted dip
/n - tremolo bar return
-n - tremolo bar Release down
S - shift slide
s - legato slide
/ -  slide into from below or out of upwards
 -  slide into from above or out of downwards
~ - vibrato
W - wide vibrato
tr - trill
TP - tremolo picking
T - tapping
S - slap
P - pop
< - fade in
^ - brush up
v - brush down

Leave a Comment

Your email address will not be published. Required fields are marked *

Scroll to Top