The Dawn Will Come (Dragon Age: Inquisition) Guitar Tab

----------------------------------------------------------------------------------------------------------
-----------0--1--0-----------------------------------------0--1--3----------------------------------------
-----2--2-----------2-----2--2--------------------2--2--2-----------2--------2--2-------------------------
--0--------------------0--------0--3--2-----0--0-----------------------0--0--------0--3--2-----------0--0-
-----------------------------------------3--------------------------------------------------3-------------
-----------------------------------------------------------------------------------------------5--5-------

-------------------------------------------------------------------------------------------------------------------
-----------------0--1--0--------------------------------------------0--1--3----------------------------------------
--------2--2--2-----------2--------2--2--------------------2--2--2-----------2--------2--2-------------------------
--0--0-----------------------0--0--------0--3--2-----0--0-----------------------0--0--------0--3--2-----------0--0-
--------------------------------------------------3--------------------------------------------------3-------------
--------------------------------------------------------------------------------------------------------5--5-------

----------------------------------------------------------------------------------------------------------
-----------0--1--0-----------------------------------------0--1--3----------------------------------------
-----2--2-----------2-----2--2--------------------2--2--2-----------2--------2--2-------------------------
--0--------------------0--------0--3--2-----0--0-----------------------0--0--------0--3--2-----------0--0-
-----------------------------------------3--------------------------------------------------3-------------
-----------------------------------------------------------------------------------------------5--5-------

Leave a Comment

Your email address will not be published. Required fields are marked *

Scroll to Top