The Great Bath (Turrican 2) Guitar Tab

                                The Great Bath - Turrican II
                                
by Chris Hülsbeck >> sequenced by Oedipus >> tab by Diralark

Chris Hülsbeck (born March 2, 1968) is a game music 
composer from Germany : http://en.wikipedia.org/wiki/Chris_H%C3%BClsbeck
midi file source from: http://www.vgmusic.com/music/computer/commodore/amiga/Turrican2_bath.mid
A nice piano version from youtube. http://www.youtube.com/watch?v=xm6fi0dQA_8

Tempo : from 112 to 120

Guitar (let ring throughout)

                                               I --                 
     E  E  E  E  E  E     E  E  E  E  E  E     E    E  E  E  E  E   
E||--------0-----0-----|--------0-----0-----|----------1-----1-----|
B||-----1-----------1--|-----0-----------0--|-------1-----------1--|
G||--2--------2--------|--0--------0--------|--2----------2--------|
D||--------------------|--------2-----------|----------3-----------|
A||--0-----------0-----|--------------------|----------------------|
E||--------------------|--0-----------0-----|--1-------------1-----|


                                            I--                 
  E  E  E  E  E  E     E  E  E  E  E  E     E   E  E  E  E  E   
--------0-----0-----|--------0-----0-----|---------1-----1-----|
-----1-----------1--|-----1-----------1--|------1-----------1--|
--0--------0--------|--2--------2--------|--2---------2--------|
--------------------|--------------------|---------3-----------|
--3-----------3-----|--0-----------0-----|---------------------|
--------------------|--------------------|--1------------1-----|


  III --                   IV --                   V --                 
  E      E  E  E  E  E     E     E  E  E  E  E     E    E  E  E  E  E   
------------------------|-----------------------|----------5-----5-----|
------------3-----3-----|-----------5-----5-----|-------5-----------5--|
---------4-----------4--|--------4-----------4--|--5----------5--------|
--5------------5--------|--6-----------6--------|----------7-----------|
------------------------|-----------------------|--0-------------0-----|
--3---------------3-----|--4--------------4-----|----------------------|


  III ---                   II --                         V (4)           
  E       E  E  E  E  E     E     E  E  E  E  E     E  E  E     E  E  E   
----------3--7-----7--3--|--------2--5-----5--2--|-----0--5--------5-----|
--3-------------3--------|--3-----------3--------|--1-----------------5--|
-------------------------|-----------------------|--------------5--------|
-------------5-----------|-----------4-----------|--------3--------3-----|
-------------------------|-----------------------|-----------------------|
--3----------------3-----|--2--------------2-----|--1--------------------|


  III --                   III --                                      
  E      E  E  E  E  E     E      E  E  E  E  E     E  E  E  E  E  E   
------------3-----3-----|------------3-----3-----|--------5--------5--|
---------5-----------5--|---------3-----------3--|-----5--------5-----|
--5------------5--------|--4------------4--------|--2--------2--------|
------------5-----------|------------5-----------|--------------------|
--3------------------3--|------------------------|--0-----------0-----|
------------------------|--3---------------3-----|--------------------|


  E  E  E  E  E  E     E  E  E  E  E  E     E  E  E  E  E  E   
--------5-----5-----|--------------0-----|--------0-----0-----|
-----5-----------5--|--1-----3--------1--|--0--------------0--|
--2--------2--------|-----2-----2--------|-----0-----0--------|
--------------------|--------------------|--------2-----------|
--0-----------0-----|--0-----------0-----|--------------------|
--------------------|--------------------|--0-----------0-----|


  ^                                         ^                  
  E  E  E  E  E  E     E  E  E  E  E  E     E  E  E  E  E  E   
--------------------|--------0-----0-----|--------------0-----|
--1-----3--1--------|-----1-----------1--|--1-----3--------1--|
--------------4--2--|--0--------0--------|-----2-----2--------|
-----3--------------|--------------------|--------------------|
--------------------|--3-----------3-----|--0-----------0-----|
--1-----------1-----|--------------------|--------------------|


  ^                    ^                    ^                  
  E  E  E  E  E  E     E  E  E  E  E  E     E  E  E  E  E  E   
--1-----0-----------|--------------------|--0-----0-----0-----|
--------------1-----|--3-----3-----3--0--|-----0-----------0--|
-----2-----2--------|-----0-----0--------|--1--------1--------|
--------3--------3--|--------------------|--------------------|
--------------------|--------------------|--------------------|
--1-----------1-----|--3-----------3-----|--4-----------4-----|


                                            II --                 
  E  E  E  E  E  E     E  E  E  E  E  E     E     E  E  E  E  E   
--------------0-----|--------------0-----|-----------------------|
--1-----3-----------|--1-----3-----------|-----------3-----5-----|
-----2-----2-----2--|-----0-----0-----0--|--5--------------------|
--------------------|--------------------|--------4-----4-----4--|
--0-----------0-----|--------------------|-----------------------|
--------------------|--3-----------3-----|--2--------------2-----|


        V (4)                                                     
                          ^                                       
  E  E  E     E  E  E     E  E  E  E  E  E     E  E  E  E  E  E   
-----0--5--------5-----|--------------0-----|--------------------|
--1-----------------5--|--------1-----------|--3-----1-----0-----|
--2-----------5--------|--0--------0-----0--|-----0-----0-----0--|
--------3--------3-----|-----2--------------|--------------------|
-----------------------|--3-----------3-----|--------------------|
--1--------------------|--------------------|--3-----------3-----|


  V --                   ---                                        
  ^                                                                 
  E    E  E  E  E  E     E   E  Q    E  E     E  E   E  E   E   E   
----------5--------5--|---------5----5-----|--8-----10-----12------|
-------5--------5-----|------5----------5--|-----------------------|
----------------------|--------------------|---------9------9------|
--7----------7--------|--7------7----------|-----7------7------10--|
----------------------|--------------------|--0-------------0------|
--5-------------5-----|--5-----------5-----|-----------------------|


   IX --                   VIII                       ---                     
                           ^                                                  
   E    E  E   E  E  E     E     E   E  E   E   E     E    E   E   E  E   E   
------------------------|--8--------10--8----------|-------------------------|
--12--------------------|------------------12--10--|--8----------------------|
-----------9------9-----|-----------10-------------|-----------9------9------|
--------9------------9--|-------10-----------------|------10--10---------10--|
--10----------10--------|--8----------------8------|--------------10---------|
---0--------------0-----|--------------------------|--8---------------8------|


                             ---                                           
  ^                          ^                         ^                   
  E   E   E   E   E   E      E   E   E   E  E   E      E  E  E  E   E  E   
--8------10------12------|--13------12------8------|--10------------------|
-------------------------|-------------------------|------0-----0------0--|
----------9-------9------|----------10-------------|---------0------0-----|
-----10------10------10--|------10------10-----10--|----------------------|
--0---------------0------|---8--------------8------|--10-----------10-----|
-------------------------|-------------------------|----------------------|


                         VIII                       ---                   
   ^                                                                      
   E  E  E  E   E  E     E    E   E   E   E  E      E  E   E   E   E  E   
--12-----0------0-----|--8-------10------12-----|---8-----10------12-----|
------0-----0------0--|-------------------------|------8--------------8--|
----------------------|-------9--------------9--|------------------------|
----------------------|--------------10---------|-------------10---------|
--11-----------11-----|--0----------------0-----|--10-------------10-----|
----------------------|-------------------------|------------------------|


  VII --                      VIII                     --               ---|  
                                                       ^                      
  E      E   E  E   E  E      E   E   E   E   E  E     E  E  E   E   E  E     
--8---------10-----12-----|-------------------------|--------8------12-------|
---------7-------------7--|--10------10------10-----|--8---------------------|
----------------7---------|-------9--------------9--|-----9-------------9----|
--------------------------|--------------10---------|-----------10-----------|
--9-----------------9-----|---8---------------8-----|------------------------|
--------------------------|-------------------------|--8-------------8-------|


   X --                                                             
                            ^                                       
   E    E   Q     E   E     E  E  E  E  E  E     E  E  E  E  E  E   
--10---------------------|--5-----5--------5--|--------5-----5-----|
-----------13----12------|-----5--------5-----|-----5-----------5--|
-------------------------|--2--------2--------|--2--------2--------|
-------------------------|--------------------|--------------------|
--10---10--------10--10--|--0-----------0-----|--0-----------0-----|
-------------------------|--------------------|--------------------|


    II --                   III --                   II --                 
    E     E  E  E  E  E     E      E  E  E  E  E     E     E  E  E  E  E   
|------------------2-----|------------------------|-----------------2-----|
|---4--------5-----------|--3---------------------|--4--------5-----------|
|*--------4-----4-----4--|------------6-----4-----|--------4-----4-----4--|
|*-----------------------|---------5-----5-----5--|-----------------------|
|---2--------------2-----|------------------------|--2--------------2-----|
|------------------------|--3---------------3-----|-----------------------|


  III --                   II --                   III --                 
  E      E  E  E  E  E     E     E  E  E  E  E     E      E  E  E  E  E   
--3---------7-----------|-----------------2-----|------------------------|
------------------3-----|--4--------5-----------|--3---------------------|
------------------------|--------4-----4-----4--|------------6-----4-----|
---------5-----------5--|-----------------------|---------5-----5-----5--|
---------------5--------|--2--------------2-----|------------------------|
--3---------------3-----|-----------------------|--3---------------3-----|


  II --                   ---                     VI                 
  E     E  E  E  E  E     E   E  E  E  E  E       E  E  E  E  E  E   
-----------------2-----|--3------2------------||--------6-----------|
-----------------------|---------------2------||--6-----------------|
--3--------4-----------|---------------------*||--------------6-----|
--------4-----4-----4--|------4-----------4--*||-----8-----8-----8--|
-----------------------|----------------------||--------------------|
--2--------------2-----|--2---------2--2------||--6-----------6-----|


  ---                     ---                   --              ---|  
  E   E   E  E   E  E     E   E   Q    E  E     E  E  E  E   E  E     
-----------------------|---------------------|-----------------------|
-----------------------|--8------11----------|--6-----8-----10-------|
--8------10-----11-----|------8--------8--8--|-----8-----8------8----|
------8------8------8--|---------------------|-----------------------|
-----------------------|--6------------6-----|--6------------6-------|
--6--------------6-----|---------------------|-----------------------|


   X --                        ---                                     
   E    E   E   E   E   E      E   E   E   E   E   E     H.            
-----------10--------------|--------------------------|---------------|
--11-----------------------|--10------11--------------|--3------------|
-------------------12------|------------------10------|---------------|
---------------------------|--------------------------|---------------|
--10---10------10------10--|------10------10------10--|--2------------|
---------------------------|--------------------------|---------------|


  H.             
---------------||
--3------------||
---------------||
---------------||
--1------------||
---------------||




Duration Legend
---------------
W - whole
H - half
Q - quarter
E - 8th
--- Barre chords
^ - brush up
v - brush down

Leave a Comment

Your email address will not be published. Required fields are marked *

Scroll to Top