The Man With the Machine Gun (Final Fantasy VIII) Guitar Tab

The Man With the Machine Gun
Final Fantasy 8
Composed by Nobuo Uematsu

6/25/07

This part repeats in the beginning
e---------------------------
B-----15-13----------15-13--
G--14-------12-14-14--------
D---------------------------
A---------------------------
E---------------------------

And then this part jumps in with it and plays
throughout much of the rest of the song...
e-------------------------------------------------------------
B--------10--------10----------------10--------10-----13--12--
G-----10--------10-------9-12-----10--------10----------------
D--12--------12-------12-------12--------12--------12---------
A-------------------------------------------------------------
E-------------------------------------------------------------

Occasionally this part changes momentarily
to this (at the 31 second mark for example):
e---------------------------------------------------
B--------------------------------------------10--8--
G----7-10----7-10-------9----7-10----7-10-----------
D--8-------8-------8-10----8-------8-------8--------
A---------------------------------------------------
E---------------------------------------------------

LEAD VOICE (starts at 10 second mark)
e---------------------------------------------------------------
B--13-----12p10h12----------------------------------------------
G----------------------14p12h14--------14-12--------------------
D-----------------------------------15-----------15p14h15---12--
A---------------------------------------------------------------
E---------------------------------------------------------------

e---------------------------------------------
B--13-----12p10h12----------------------------
G----------------------14p12h14--------14-12--
D-----------------------------------15--------
A---------------------------------------------
E---------------------------------------------

e------------------------------------------------------10--
B--------------------------10----------11--10----10-13-----
G--10p9-----9--12--10----------10--12---------10-----------
D-------12-------------12----------------------------------
A----------------------------------------------------------
E----------------------------------------------------------

e---------------------------------------------------------------
B--13-----12p10h12----------------------------------------------
G----------------------14p12h14--------14-12--------------------
D-----------------------------------15-----------15p14h15---12--
A---------------------------------------------------------------
E---------------------------------------------------------------

e-------------------------------------------------------
B-------------------------------------------------------
G--10----------9p7h9--------------8----------7p5h7------
D---------------------10----------------------------10--
A-------------------------------------------------------
E-------------------------------------------------------

e-----------12----------------------15-----------
B--12-14-15----15-14----14-12-14-15----15-14-12--
G--------------------14--------------------------
D------------------------------------------------
A------------------------------------------------
E------------------------------------------------

e-----12-13-15-13-12----12----12-13-18-13-12-----
B--15----------------13----15----------------15--
G------------------------------------------------
D------------------------------------------------
A------------------------------------------------
E------------------------------------------------

Leave a Comment

Your email address will not be published. Required fields are marked *

Scroll to Top