The Path (A New Beginning) (The Last of Us) Guitar Tab

The Path (A New Beginning)
The Last Of Us
Original song by Gustavo Santaolalla
Arrangement & tab by Cleseph
06/03/2014

The Last Of Us is another one of my favorite games ever, and it's OST is awesome, too.

This is the tab for the end credits music, my favorite piece of the whole score.


CHORDS

                                             Chord transition
                                          ___________|___________
                                         |                       |
  Bm     A    Em    F#m    D     G         Dm     C    Gm    Am

e|-2-| |-0-| |-0-| |-2-| |-2-| |-3-|      |-1-| |-0-| |-3-| |-0-|
B|-3-| |-2-| |-0-| |-2-| |-3-| |-3-|      |-3-| |-1-| |-3-| |-1-|
G|-4-| |-2-| |-0-| |-2-| |-2-| |-0-|      |-2-| |-0-| |-3-| |-2-|
D|-4-| |-2-| |-2-| |-4-| |-0-| |-0-|      |-0-| |-2-| |-5-| |-2-|
A|-2-| |-0-| |-2-| |-4-| |---| |-2-|      |---| |-3-| |-5-| |-0-|
E|---| |---| |-0-| |-2-| |---| |-3-|      |---| |---| |-3-| |---|


MELODY

Intro

Play these licks slowly, with no particular tempo, as you feel it  :)

   Bm                              A
   v                               v
e|-----------0---0---2-------------------0------------------------
B|-----2-3-----------------------------2-----3---2----------------
G|---4-------------------------------2----------------------------
D|-4-------------------------------2------------------------------
A|----------------------------------------------------------------
E|----------------------------------------------------------------

   Em                              Bm             F#m
   v                               v               v
e|-------0-------0---2-------------2------------------------------
B|-----0-----3-----------------------3-------3---2----------------
G|---0---------------------------------4--------------------------
D|-2-------------------------------------4------------------------
A|----------------------------------------------------------------
E|----------------------------------------------------------------


Theme

   Bm                              A
   v                               v
X|-1-2-3-4-1-2-3-4-1-2-3-4-1-2-3-4-1-2-3-4-1-2-3-4-1-2-3-4-1-2-3-4
   v       v       v       v       v       v       v       v
e|-----------0---0---2-------------------0------------------------
B|-----2-3-----------------------------2-----3---2----------------
G|---4-------------------------------2----------------------------
D|-4-------------------------------2------------------------------
A|----------------------------------------------------------------
E|----------------------------------------------------------------

   Em                              Bm             F#m
   v                               v               v
X|-1-2-3-4-1-2-3-4-1-2-3-4-1-2-3-4-1-2-3-4-1-2-3-4-1-2-3-4-1-2-3-4-1-2-3-4-1-2-3-4
   v       v       v       v       v       v       v       v       v       v
e|-------0-------0---2-------------2----------------------------------------------
B|-----0-----3-----------------------3-------3---2--------------------------------
G|---0---------------------------------4---------------------------------------2--
D|-2-------------------------------------4----------------------------------------
A|--------------------------------------------------------------------------------
E|--------------------------------------------------------------------------------

   Em                              Bm
   v                               v
X|-1-2-3-4-1-2-3-4-1-2-3-4-1-2-3-4-1-2-3-4-1-2-3-4-1-2-3-4-1-2-3-4
   v       v       v       v       v       v       v       v
e|----------------------------------------------------------------
B|----------------------------------------------------------------
G|-4-------------------------------4------------------------------
D|----------------------------------------------------------------
A|----------------------------------------------------------------
E|----------------------------------------------------------------


Bridge                                                            
                                                                 
   D       G       A               D       G       A               
   v       v       v               v       v       v
X|-1-2-3-4-1-2-3-4-1-2-3-4-1-2-3-4-1-2-3-4-1-2-3-4-1-2-3-4-1-2-3-4
   v       v       v       v       v       v       v       v
e|-------10------------------------------10------------------------
B|-10------12------10--------------10------12------10--------------
G|-----11------12----------------------11------12------------------
D|---12------------------------------12----------------------------
A|-----------------------------------------------------------------
E|-----------------------------------------------------------------

   D       G       A               D       G                      
   v       v       v               v       v 
X|-1-2-3-4-1-2-3-4-1-2-3-4-1-2-3-4-1-2-3-4-1-2-3-4
   v       v       v       v       v       v      
e|-------10------------------------------10-------
B|-10------12------10--------------10------12-----
G|-----11------12----------------------11------12-
D|---12------------------------------12-----------
A|------------------------------------------------
E|------------------------------------------------

   A (keep strumming)
   v
X|-1-2-3-4-1-2-3-4-1-2-3-4-1-2-3-4-1-2-3-4-1-2-3-4-1-2-3-4-1-2-3-4
   v       v       v       v       v       v       v       v
e|----------------------------------------------------------------
B|-10-------------------------------------------------------------
G|----------------------------------------------------------------
D|----------------------------------------------------------------
A|----------------------------------------------------------------
E|----------------------------------------------------------------


Theme

   Bm                              A
   v                               v
X|-1-2-3-4-1-2-3-4-1-2-3-4-1-2-3-4-1-2-3-4-1-2-3-4-1-2-3-4-1-2-3-4
   v       v       v       v       v       v       v       v
e|-----------0---0---2-------------------0------------------------
B|-----2-3-----------------------------2-----3---2----------------
G|---4-------------------------------2----------------------------
D|-4-------------------------------2------------------------------
A|----------------------------------------------------------------
E|----------------------------------------------------------------

   Em                              Bm             F#m
   v                               v               v
X|-1-2-3-4-1-2-3-4-1-2-3-4-1-2-3-4-1-2-3-4-1-2-3-4-1-2-3-4-1-2-3-4
   v       v       v       v       v       v       v       v      
e|-------0-------0---2-------------2------------------------------
B|-----0-----3-----------------------3-------3---2----------------
G|---0---------------------------------4--------------------------
D|-2-------------------------------------4------------------------
A|----------------------------------------------------------------
E|----------------------------------------------------------------


Chord transition (Same as the Theme part, but 3 frets higher)

   Dm                              C                            ___
   v                               v                               |
X|-1-2-3-4-1-2-3-4-1-2-3-4-1-2-3-4-1-2-3-4-1-2-3-4-1-2-3-4-1-2-3-4 |
   v       v       v       v       v       v       v       v       |
e|-----------3---3---5-------------------3------------------------ |
B|-----5-6-----------------------------5-----6---5---------------- |
G|---7-------------------------------5---------------------------- |
D|-7-------------------------------5------------------------------ |
A|---------------------------------------------------------------- |
E|---------------------------------------------------------------- |
                                                                   |
   Gm                              Dm              Am              |--- Play this twice
   v                               v               v               |
X|-1-2-3-4-1-2-3-4-1-2-3-4-1-2-3-4-1-2-3-4-1-2-3-4-1-2-3-4-1-2-3-4 |
   v       v       v       v       v       v       v       v       |
e|-------3-------3---5-------------5------------------------------ |
B|-----3-----6-----------------------6-------6---5---------------- |
G|---3---------------------------------7-------------------------- |
D|-5-------------------------------------7------------------------ |
A|---------------------------------------------------------------- |
E|---------------------------------------------------------------- |
                                                                ___|

Outro

Play the first lick slowly and freely as the final chord is strummed...

   Dm
   v
e|-----------3---3---5-
B|-----5-6-------------
G|---7-----------------
D|-7-------------------
A|---------------------
E|---------------------



TIP : If you play this on electric guitar, stay in clean sound, and try to put a slight
vibrato on.

Leave a Comment

Your email address will not be published. Required fields are marked *

Scroll to Top