The Second Joker (The King of Fighters XIII) Guitar Tab

e|---------------------------------------------------------
B|---------------------------------------------------------
G|---------------------------------------------------------
D|---------------------------------------------------------  x2
A|-----------------0-------2---0---4---(4)---(4)---(4)---(4) 
E|-2---2---0h1h2-------2-----------2---(2)---(2)---(2)---(2)


  ---------------------------------------------------------  
  ----------------------------------------------------------
  ----------------------------------------------------------
  ----------------------------------------------------------
  -----------------0-------2---0-------------------0-------5
  -2---2---0h1h2-------2-----------2---2---0h1h2-------2---3

  ---------------------------------------------------------------
  ---------------------------------------------------------------
  ---------------------------------------------------------------
  ---------------------------------------------------------------
  -----------------0-------2---0-------------------0----2---2---2
  -2---2---0h1h2-------2-----------2---2---0h1h2--------0---0---0

  --------------------------------
  --------------------------------
  -------------------------------- 
  -------------------------2-----4 x4
  -4--4----4--4----4--4----0-----2
  -2--2----2--2----2--2-----------

  
  ------------------------------------------------------------------------------
  ------------------------------------------------------------------------------
  ------------------------------------------------------------------------------
  ------------------------------------------------------------------------------
  -------------------------0-------0---2---------------------------0------------
  -0--2----0--2----0--2--------2------------0--2----0--2---0--2--------2---0---2


  ------------------------------------------------------------------------------
  ------------------------------------------------------------------------------
  ------------------------------------------------------------------------------
  -------------------------------------------------------------------------0----
  -------------------------0-------0---2---------------------------0---2-------4
  -0--2----0--2----0--2--------2------------0--2----0--2---0--2-----------------

  
  -/9------------------------------------
  -----------------------------10/12---10
  ------11--9h11-----------9-------------
  -------------------9--11---------------
  ---------------------------------------
  ---------------------------------------

  -/9-------------------------------------
  --------------------------10--9h10p9----
  ------11--9h11------------------------11
  -----------------------9----------------
  -------------------11-------------------
  ----------------------------------------

  
  ----------------------------------------
  -----------------------12-------14----17
  -/11--13--14----13h14-------------------
  -----------------------------14---------
  ----------------------------------------
  ----------------------------------------

  ----------------17---------19--------------
  -------17h19h21----21hb----------21--17--19
  -18h19-------------------------------------
  -------------------------------------------
  -------------------------------------------
  -------------------------------------------


17p14----17p14----17-19p16----19p16----16h19-21p17------19p16------21p17------------------
------15-------15----------17-------17-------------17---------17---------17h19h21p17------
------------------------------------------------------18---------16-----------------------
-------------------------------------------------------------------------------------21p18
------------------------------------------------------------------------------------------
------------------------------------------------------------------------------------------

  -----------------------19h21-21
  -19---21------19h21h22---------
  -----------21------------------
  ------------------------------- 
  -------------------------------
  -------------------------------

  --------------------------------------------------------------------------------7--7/9-
  --------------------------------------------7----------------------------7--10---------
  -----------------------------------6--7---------9---7--6--------6--7--9----------------
  -4-------4/6--------6/7-------7/9--------9----------------9--7-------------------------
  -----4----------4---------4------------------------------------------------------------
  ---------------------------------------------------------------------------------------

  ---------------------------------------------------------------12p10---------------------
  --------------------------9h10h12p10p9----------------10h12h14-------14p12p10h12p10----14
  ------------------11-9h11--------------9--------------------------------------------13---
  -------------9-11-------------------------11----11-14------------------------------------
  -9---9-11-12---------------------------------12------------------------------------------
  ---9-------------------------------------------------------------------------------------

  -14---12--------------------------12--14--17b---14
  ----------15--14--12------14--15------------------
  ----------------------14--------------------------
  --------------------------------------------------
  --------------------------------------------------
  --------------------------------------------------


  

Leave a Comment

Your email address will not be published. Required fields are marked *

Scroll to Top