Title Screen (Sonic the Hedgehog 3) Guitar Tab

Sonic 3 -  Title Screen
 Tab by Kenkiske

Lead Gtr:

e||-----------------------------------------12-----------------|
B||--12-12-13-13-15-15--12-12-13-15-15-15-------13-13-12-13----|
G||---------------------------------------------------------14~|
D||------------------------------------------------------------|
A||------------------------------------------------------------|
E||------------------------------------------------------------|

|---------------------------------------13--13-13-12-13-15~---|
|--12-12-13-13-15-15--12-12-13-15-15-15-----------------------|
|-------------------------------------------------------------|
|-------------------------------------------------------------|
|-------------------------------------------------------------|
|-------------------------------------------------------------|

Other guitar [some fast tappings]:

    tap 1       tap 2       tap 3 
e|-----------|------------|-----------|
B|--8t6p3h6--|--10t8p5h8--|-----------|
G|-----------|------------|--7t5p2h5--|
D|-----------|------------|-----------|
A|-----------|------------|-----------|
E|-----------|------------|-----------|
   8x times      4x times    4x times

play tap 1 again, then tap 2 , and back playing to tap 1 until fade


Leave a Comment

Your email address will not be published. Required fields are marked *

Scroll to Top