To Zanarkand (Final Fantasy X) Guitar Tab

To Zanarkand
Final Fantasy X
Composed by Nobuo Uematsu

7/22/06

Intro

e--0-------0-2-3--------------------0-2
B--------0----------------3-------3----
G------0------------------------2------
D----2----------------------0-3--------
A--------------------------------------
E--------------------------------------

e--7-7-7-7-5---10-3----------0-0-0-0-----3--
B------------------------------------3-----1
G-------------------------------------------
D-------------------------------------------
A-------------------------------------------
E-------------------------------------------

Main Theme

e--0-----0-2-3-2-0-----0--------------0-----0-2-3-2-3-5-3-5-7
B------0-----------3-----3-0--------------0------------------
G------------------------------------------------------------
D------------------------------------------------------------
A------------------------------------------------------------
E------------------------------------------------------------

e--0-----0-2-3-2-0-----0--------------------------------------------
B------0-----------3-----3-0--------------0-0-0-0-----3-------------
G-------------------------------------0-2---------2------0---0------
D--------------------------------------------------------------4-0-2
A-------------------------------------------------------------------
E-------------------------------------------------------------------

e------0-0---------3-3----------7---14-14----------5---12-12-11
B----------3-1-0-----------------------------------------------
G--2-----------------------------------------------------------
D--------------------------------------------------------------
A--------------------------------------------------------------
E--------------------------------------------------------------

e------2-2-0-------5-5----------4-0-------2------------
B--0---------3-2--------------------2-0---------------0
G-------------------------------------------2-------2--
D-------------------------------------------------4----
A------------------------------------------------------
E------------------------------------------------------

Leave a Comment

Your email address will not be published. Required fields are marked *

Scroll to Top