What’s Up?

-------------------------------------------------------------------------------
		WHAT'S UP- 4 NON BLONDES
-------------------------------------------------------------------------------

Tabbed By : James Ryan
http://world-according-to-jim.blogspot.com/

Tuning: Standard

SONG OUTLINE

A B D A

INTRO
G|--------|
D|--------|
A|--12/---|
E|--------|

VERSES
G|------------------------------|
D|------------------------------|
A|------7-------7--5-5--7-------|
E|-5-5-----7-7-------------5-5--|

CHORUS
G|-----------------------------------------------------------|
D|----7--5--------------9--7-----------------7------7--------|
A|----------7--5--7-----------9-9--7---5--5----5--5----------|
E|-5-----------------7--------------------------------5-5-5--|


Leave a Comment

Your email address will not be published. Required fields are marked *

Scroll to Top