Wild Honey

Intro do violão 
1--------------------------------------------------------- 
2---12----12p10----12----12p10----12----12/13----x----10-- 
3--------------------------------------------------------- 
4---12----12-------12----12-------12----12-------x----12-- 
5--------------------------------------------------------- 
6--------------------------------------------------------- 
 
Intro da guitarra 
1--------------------------------------------- 
2---------------------------3-------3----1p0-- 
3-------------2--4--5------------------------- 
4--------0------------------------------------ 
5--------------------------------------------- 
6---3----------------------------------------- 
 
Versos: 
G       C 
 
Você pode tocar assim os versos: 
1-----------------3----------------------------------------------- 
2-------------3-------3-------------------------------1---1p0----- 
3---4p2---4---------------0------------------------------------0-- 
4------------------------------------------------2---------------- 
5-------------------------------------------3--------------------- 
6----------------------------------------------------------------- 
 
Refrão: 
Em C G Bm7 
Ou: 
1--------------------------------------------------------------------- 
2-----------12---10---10---12------------------12---10---10---12---12- 
3---9---------------------------------7----/9------------------------- 
4--------------------------------------------------------------------- 
5--------------------------------------------------------------------- 
6--------------------------------------------------------------------- 
 
Ponte: 
Em C Am C 
 

Leave a Comment

Your email address will not be published. Required fields are marked *

Scroll to Top