Wondering About My Loved Ones (Wolfenstein 3D) Guitar Tab

Wondering about my loved ones                         
~Wolfenstein 3D~
Composed by: Robert Prince
Arranged by: kenor

Rhytm: 4/4 metrum

Repeat over and over again ad nauseam...


     E  E  E  E  E  E  E  E     Q    H.              E  E  E  E  E  E  E  E
E||---------------------------|-------x------------|--------------------------|
B||---------------5-----5-----|-------x------------|--------------1-----1-----|
G||*-----2--2--2-----2-----2--|-------x------------|--------------------------|
D||*--0-----------------------|--0----x------------|-----3--3--3-----3-----3--|
A||---------------------------|-------x------------|--1-----------------------|
E||---------------------------|-------x------------|--------------------------|


     Q    H.              E  E  E  E  E  E  E  E     Q    H.
E||-------x------------|--------------------------|-------x------------|
B||-------x------------|--------------5-----5-----|-------x------------|
G||-------x------------|-----2--2--2-----2-----2--|-------x------------|
D||-------x------------|--0-----------------------|--0----x------------|
A||--1----x------------|--------------------------|-------x------------|
E||-------x------------|--------------------------|-------x------------|


     E  E  E  E  E  E  E  E     Q    H        Q       E  E  E  E  E  E  E  E
E||--------------------------|---------------------|--0-----------------------|
B||--------------1-----1-----|---------------------|--------------5-----5-----|
G||--------------------------|----------------2----|-----2--2--2-----2-----2--|
D||-----3--3--3-----3-----3--|-------x-------------|--0-----------------------|
A||--1-----------------------|--1----x-------------|--------------------------|
E||--------------------------|-------x-------------|--------------------------|


     Q    H        Q       E  E  E  E  E  E  E  E     Q    H        Q
E||-------x--------1----|--------------------------|-------x-------------|
B||-------x-------------|--------------1-----1-----|-------x-------------|
G||-------x-------------|--3-----------------------|-------x--------2----|
D||--0----x-------------|-----3--3--3-----3-----3--|-------x-------------|
A||-------x-------------|--1-----------------------|--1----x-------------|
E||-------x-------------|--------------------------|-------x-------------|


     E  E  E  E  E  E  E  E     Q    H        Q       E  E  E  E  E  E  E  E
E||--0-----------------------|-------x--------1----|--3-----------------------|
B||--------------5-----5-----|-------x-------------|--------------1-----1-----|
G||-----2--2--2-----2-----2--|-------x-------------|--------------------------|
D||--0-----------------------|--0----x-------------|-----3--3--3-----3-----3--|
A||--------------------------|-------x-------------|--1-----------------------|
E||--------------------------|-------x-------------|--------------------------|


     Q    H        Q       E  E  E  E  E  E  E  E     Q    H        Q
E||-------x-------------|--5-----------------------|-------x--------6----|
B||-------x--------3----|--------------------------|-------x-------------|
G||-------x-------------|--------------2-----2-----|-------x-------------|
D||-------x-------------|-----0--0--0-----0-----0--|-------x-------------|
A||--1----x-------------|--------------------------|-------x-------------|
E||-------x-------------|--3-----------------------|--3----x-------------|


     E  E  E  E  E  E  E  E     Q    H        Q       E  E  E  E  E  E  E  E
E||--1-----------------------|-------x-------------|--5-----------------------|
B||--------------1-----1-----|-------x--------3----|--------------------------|
G||--------------------------|-------x-------------|--------------2-----2-----|
D||-----3--3--3-----3-----3--|-------x-------------|-----0--0--0-----0-----0--|
A||--1-----------------------|--1----x-------------|--------------------------|
E||--------------------------|-------x-------------|--3-----------------------|

                                                       ^
     Q    Q    Q    Q       E  E  E  E  E  E  E  E     Q    Q    Q    Q
E||-------x----6----5----|--3-----------------1-----|--0-------------------|
B||-------x--------------|--------------------------|--2-------------------|
G||-------x--------------|--------------3-----3-----|--0--------------2----|
D||-------x--------------|-----2--2--2-----2-----2--|-----------------2----|
A||-------x--------------|--0-----------------------|--0----0----0----0----|
E||--3----x--------------|--------------------------|----------------------|

     ^                               .    .            ^
     E  E  E  E  E  E  E  E     Q    Q    Q    Q       E  E  E  E  E  E  E  E
E||--0-----------------------|-----------------1----|--------------------------|
B||--6-----------5-----5-----|----------------------|--------------1-----1-----|
G||--2--2--2--2-----2-----2--|----------------------|--3-----------------------|
D||--0-----------------------|--0----0----0----0----|--3--3--3--3-----3-----3--|
A||--------------------------|----------------------|--1-----------------------|
E||--------------------------|----------------------|--------------------------|

          .    .            ^                               .    .
     Q    Q    Q    Q       E  E  E  E  E  E  E  E     Q    Q    Q    Q
E||----------------------|--0-----------------------|-----------------1----|
B||----------------------|--6-----------5-----5-----|----------------------|
G||-----------------2----|--2--2--2--2-----2-----2--|----------------------|
D||----------------------|--0-----------------------|--0----0----0----0----|
A||--1----1----1----1----|--------------------------|----------------------|
E||----------------------|--------------------------|----------------------|

     ^                               .    .            ^
     E  E  E  E  E  E  E  E     Q    Q    Q    Q       E  E  E  E  E  E  E  E
E||--3-----------------------|----------------------|--5-----------------------|
B||--3-----------1-----1-----|-----------------3----|--3-----------------------|
G||--1-----------------------|----------------------|--3-----------2-----2-----|
D||-----3--3--3-----3-----3--|----------------------|-----0--0--0-----0-----0--|
A||--1-----------------------|--1----1----1----1----|--------------------------|
E||--------------------------|----------------------|--3-----------------------|

          .    .            ^                               .    .
     Q    Q    Q    Q       E  E  E  E  E  E  E  E     Q    Q    Q    Q
E||-----------------6----|--1-----------------------|----------------------|
B||----------------------|--3-----------1-----1-----|-----------------3----|
G||----------------------|--1-----------------------|----------------------|
D||----------------------|-----3--3--3-----3-----3--|----------------------|
A||----------------------|--1-----------------------|--1----1----1----1----|
E||--3----3----3----3----|--------------------------|----------------------|

     ^                               .                 ^
     E  E  E  E  E  E  E  E     Q    Q    Q    Q       E  E  E  E  E  E  E  E
E||--5-----------------------|------------6----5----|--3-----------------1-----|
B||--3-----------------------|----------------------|--3-----------------------|
G||--3-----------2-----2-----|----------------------|--3-----------3-----3-----|
D||-----0--0--0-----0-----0--|----------------------|-----2--2--2-----2-----2--|
A||--------------------------|----------------------|--0-----------------------|
E||--3-----------------------|--3----3----3----3----|--------------------------|

     ^         ^
     Q    Q    Q    Q                                           
E||--0-------------------||
B||--2---------2---------||
G||--0---------0--------*||
D||------------2--------*||
A||--0----0----0----0----||
E||----------------------||


Legend:
-------


H - half
Q - quarter
E - 8th
. - staccato (mute immediately)
^ - brush up
x - right hand percussive mute

Leave a Comment

Your email address will not be published. Required fields are marked *

Scroll to Top