Zelda Medley (Gerudo Valley, Fairy Fountain, Main Theme, Hyrule Field) (Legend of Zelda: Ocarina of Time) Guitar Tab

Title: 			Zelda Medley
Songs: 			Gerudo Valley
			Fairy Fountain
			Main Theme (Overworld)
			Hyrule Field
Game:			Ocarina of Time
Composed by: 		Koji Kondo
Arrangement/Tab: 	Verses Mode

http://www.youtube.com/versesmode

To hear this Medley on YouTube, click the Listen Button above
Free high quality PDFs, click the Download button above

Zelda Medley (Guitar Duet) - Verses Mode

Guitar 1

Gerudo Valley
E |----------------------------|----------------------------|
B |----------------------------|----------------------------|
G |-----2--1--2-----2--1--2----|-----2--1--2-----2--1--2----|
D |--4-----------4-------------|--4-----------4-------------|
A |----------------------------|----------------------------|
E |----------------------------|----------------------------|


--------2h-4--5-----------2h-4--5-------------------|
-----2-----------------2----------------------------|
----------------------------------------------------|
----------------------------------------------------|
----------------------------------------------------|
----------------------------------------------------|


--------2h-4--5-----------2h-4--5-------------------|
-----3-----------------3----------------------------|
----------------------------------------------------|
----------------------------------------------------|
----------------------------------------------------|
----------------------------------------------------|


--------0h-2--4-----------0h-2--4-------------------|
-----0-----------------0----------------------------|
----------------------------------------------------|
----------------------------------------------------|
----------------------------------------------------|
----------------------------------------------------|


--2h-4h-2--1--1-----1-----1-----1-----1-----4-------|
--------------------2-----------2-------------------|
--------------------------1-------------------------|
----------------------------------------------------|
----------------------------------------------------|
----------------------------------------------------|


--------2h-4--5-----------2h-4--5-------------------|
-----2-----------------2----------------------------|
----------------------------------------------------|
----------------------------------------------------|
----------------------------------------------------|
----------------------------------------------------|


--------2h-4--5-----------2h-4--5-------------------|
-----3-----------------3----------------------------|
----------------------------------------------------|
----------------------------------------------------|
----------------------------------------------------|
----------------------------------------------------|


----------------------------------------------------|
--------9h-10-12----------9h-10-12------------------|
-----9-----------------9----------------------------|
----------------------------------------------------|
----------------------------------------------------|
----------------------------------------------------|


--10h12h10-9----------------------------------------|
----------------------------------------------------|
----------------------------------------------------|
----------------------------------------------------|
----------------------------------------------------|
----------------------------------------------------|


-----------------5--------4-------------------------|
-----------------------------------7----------------|
--------6-----------------------------------6-------|
----------------------------------------------------|
----------------------------------------------------|
----------------------------------------------------|


----------------------------------------------------|
--5-----------5h-7h-5-------------------------------|
-----------------------7-----------7----------------|
----------------------------------------------------|
----------------------------------------------------|
----------------------------------------------------|


----------------------------------------------------|
--------9--------7--------9-------------------------|
-----------------------------------9--------7-------|
----------------------------------------------------|
----------------------------------------------------|
----------------------------------------------------|


----------------------------------------------------|
----------------------------------------------------|
--6-----------7h-9h-7--6-----------6----------------|
----------------------------------------------------|
----------------------------------------------------|
----------------------------------------------------|


----------------------------------------------------|
----------------------------------------------------|
-----------------6-----------------6----------------|
-----------6h-7--------------6h-7-------------------|
--------9-----------------9-------------------------|
----------------------------------------------------|


----------------------------------------------------|
----------------------------------------------------|
-----------------7-----------------7----------------|
-----------6h-7--------------6h-7-------------------|
--------9-----------------9-------------------------|
----------------------------------------------------|


-----------4--2-------------|----------|
-----------------------0----|--2-------|
--4-------------------------|----------|
----------------------------|----------|
----------------------------|----------|
----------------------------|----------|


----------------------------------------------------|
----------------------------------------------------|
----------------------------------------------------|
--7h-6--7--------------------------6--7h-9--7--6----|
--------------------------------9-------------------|
----------------------------------------------------|


----------------------------------------------------|
----------------------------------------------------|
----------------------------------------------------|
--7h-6--7-------------------------------------------|
----------------------------------------------------|
----------------------------------------------------|


----------------------------------------------------|
----------------------------------------------------|
----------------------------------------------------|
--6h-4--6--------------------------4--6h-7--6--4----|
--------------------------------7-------------------|
----------------------------------------------------|


----------------------------------------------------|
----------------------------------------------------|
----------------------------------------------------|
--6h-4--3-------------------------------------------|
----------------------------------------------------|
----------------------------------------------------|


----------------------------------------------------|
--10h9--10-------------------------9--10h12-10h9----|
--------------------------------11------------------|
----------------------------------------------------|
----------------------------------------------------|
----------------------------------------------------|


----------------------------------------------------|
--10h9--10----------------10----10----10----10------|
----------------------------------------------------|
----------------------------------------------------|
----------------------------------------------------|
----------------------------------------------------|


-----------------------------------------9--10-12---|
--12h10-12----------------------9--10-12------------|
----------------------------------------------------|
----------------------------------------------------|
----------------------------------------------------|
----------------------------------------------------|


--9h-10-9-----------------9-------------------------|-------|-------|
--------------------------------12----10----9-------|-------|-------|
----------------------------------------------------|-------|-------|
----------------------------------------------------|-------|-------|
----------------------------------------------------|-------|-------|
----------------------------------------------------|-------|-------|

Fairy Fountain
--5-----------3-----------5--3----|--2-----------3-----------2--3----|
-----3-----3-----3-----3----------|-----3-----3-----3-----3----------|
--------3-----------3-------------|--------3-----------3-------------|
----------------------------------|----------------------------------|
----------------------------------|----------------------------------|
----------------------------------|----------------------------------|


--3-----------1-----------3--1----|--0-----------1-----------0--1----|
-----1-----1-----1-----1----------|-----1-----1-----1-----1----------|
--------2-----------2-------------|--------2-----------2-------------|
----------------------------------|----------------------------------|
----------------------------------|----------------------------------|
----------------------------------|----------------------------------|


----------------------------------|----------------------------------|
--6-----------5-----------6--5----|--4-----------5-----------4--5----|
-----3-----3-----3-----3----------|-----3-----3-----3-----3----------|
--------5-----------5-------------|--------5-----------5-------------|
----------------------------------|----------------------------------|
----------------------------------|----------------------------------|


----------------------------------|----------------------------------|
--5-----------3-----------5--3----|--2-----------3-----------2--3----|
-----2-----2-----2-----2----------|-----2-----2-----2-----2----------|
--------3-----------3-------------|--------3-----------3-------------|
----------------------------------|----------------------------------|
----------------------------------|----------------------------------|


--5-----------3-----------5--3----|--2-----------3-----------2--3----|
-----3-----3-----3-----3----------|-----3-----3-----3-----3----------|
--------3-----------3-------------|--------3-----------3-------------|
----------------------------------|----------------------------------|
----------------------------------|----------------------------------|
----------------------------------|----------------------------------|


--6-----------5-----------6--5----|--4-----------5-----------4--5----|
-----4-----4-----4-----4----------|-----4-----4-----4-----4----------|
--------5-----------5-------------|--------5-----------5-------------|
----------------------------------|----------------------------------|
----------------------------------|----------------------------------|
----------------------------------|----------------------------------|


--8-----------6-----------8--6----|--5-----------6-----------5--6----|
----------------------------------|-----3-----3-----3-----3----------|
-----7-----7-----7-----7----------|--------3-----------3-------------|
--------8-----------8-------------|----------------------------------|
----------------------------------|----------------------------------|
----------------------------------|----------------------------------|


--5-----------3-----------5--3----|----------------------------------|
----------------------------------|--6-----------5-----------6--5----|
-----3-----3-----3-----3----------|-----3-----3-----3-----3----------|
--------5-----------5-------------|--------5-----------5-------------|
----------------------------------|----------------------------------|
----------------------------------|----------------------------------|


----------------------------|----------------------------|
--------------3-------------|----------------------------|
--------2-------------------|--------2h-0----------------|
-----0-----0----------------|-----0--------3h-0----------|
--1-------------------------|--------------------1h-0----|
----------------------------|----------------------------|


----------------------------|----------------------------|
----------------------------|----------------------------|
--------------5-------------|--------2h-0----------------|
--------5-------------------|--------------3h-0----------|
-----3-----3----------------|-----0--------------3h-0----|
--5-------------------------|----------------------------|


----------------------------|----------------------------|
----------------------------|----------------------------|
--------------3-------------|--------0-------------------|
--------3-------------------|-----------3--2h-0----------|
-----1-----1----------------|--------------------1h-0----|
--3-------------------------|-----3----------------------|


----------------------------|----------------------------|
----------------------------|----------------------------|
--------------2-------------|--------------2h-0----------|
--------2-------------------|--------2h-0--------3h-2----|
-----0-----0----------------|-----0----------------------|
--1-------------------------|----------------------------|


----------------------------|----------------------------|
--------------3-------------|----------------------------|
--------2-------------------|--------2h-0----------------|
--0--------0----------------|-----0--------3h-0----------|
-----1----------------------|--------------------1h-0----|
----------------------------|----------------------------|


----------------------------|----------------------------|
----------------------------|----------------------------|
--------------5-------------|----------------------------|
--------5-------------------|--------4h-0----------------|
-----3-----3----------------|-----0--------3h-0-----0----|
--5-------------------------|--------------------2-------|


----------------------------|----------------------------|
--------------3-------------|--------3-------------------|
--------3-------------------|-----------3h-0-------------|
-----0-----0----------------|-----------------0----------|
--1-------------------------|-----1--------------1h-0----|
----------------------------|----------------------------|


----------------------------|--------------------3-------|
--------------3-------------|--------------5h-3-----5----|
--------3-------------------|--------3-------------------|
-----5-----5----------------|-----------5----------------|
--3-------------------------|-----3----------------------|
----------------------------|----------------------------|


----------------------------|----------------------------|
----------------------------|----------------------------|
--------------2-------------|--------------1-------------|
--------3-------------------|--------2--------2----------|
-----3-----3----------------|-----2-----2--------2-------|
--1-------------------------|--0-------------------------|

Main Theme (Overworld)
----------------------------------------------------|
--------------------------------------------2h-3----|
--2--------------------------------2--2h-4----------|
--------------2-------------------------------------|
----------------------------------------------------|
----------------------------------------------------|


-----------------------------------------------0--------0-----1-----3-------|
--5-------------------------------------------------------------------------|
-----------------------------------------------0--------0-----2-----3-------|
----------------------------------------------------------------------------|
----------------------------------------------------------------------------|
----------------------------------------------------------------------------|


--5--------------------------------------------5--------5h----3-------------|
--------------------------------------------------------------------6-------|
--5-------------------------------------------------------------------------|
----------------------------------------------------------------------------|
----------------------------------------------------------------------------|
----------------------------------------------------------------------------|


--3-----------------------------------0-------------|
-----------6h-5-------------------------------------|
----------------------------------------------------|
----------------------------------------------------|
----------------------------------------------------|
----------------------------------------------------|


-----------0h-1-----------------------0-------------|
--3-----3-----------------------------------3-------|
----------------------------------------------------|
----------------------------------------------------|
----------------------------------------------------|
----------------------------------------------------|


--------------0-------------------------------------|
--1-----1h-3--------------------------3-----1-------|
----------------------------------------------------|
----------------------------------------------------|
----------------------------------------------------|
----------------------------------------------------|


----------------------------------------------------|----------------|
--0-----0--2--4-----------------------7-------------|--5-------------|
----------------------------------------------------|----------------|
--1-----1--2--4-----------------------7-------------|--6-------------|
----------------------------------------------------|----<7>---------|
----------------------------------------------------|----------------|


----------------------------------------------------|
--------------------------------------------2h-3----|
--2--------------------------------2--2h-4----------|
--------------2-------------------------------------|
----------------------------------------------------|
----------------------------------------------------|


-----------------------------------------------0--------0-----1-----3-------|
--5-------------------------------------------------------------------------|
-----------------------------------------------0--------0-----2-----3-------|
----------------------------------------------------------------------------|
----------------------------------------------------------------------------|
----------------------------------------------------------------------------|


--5--------8----|--7--------0----|--1--------5----|--4--0-----0----|
----------------|-----9----------|----------------|----------------|
--5--------8----|--9--------1----|--2--------5----|--4--1-----1----|
----------------|-----9----------|----------------|----------------|
----------------|----------------|----------------|----------------|
----------------|----------------|----------------|----------------|


--1--------5----|--4--0----------|-----------1----|--0-------------|
----------------|-----------2----|--3-------------|-----1----------|
--2--------5----|--4--1----------|-----------3----|--2--------2----|
----------------|-----------2----|--3-------------|-----2----------|
----------------|----------------|----------------|----------------|
----------------|----------------|----------------|----------------|


----------------------------------------------------|----------------|
--0-----0--2--4-----------------------7-------------|--5-------------|
----------------------------------------------------|----------------|
--1-----1--2--4-----------------------7-------------|--6-------------|
----------------------------------------------------|----<7>---------|
----------------------------------------------------|----------------|

Hyrule Field
----------------------------------------------------|----------------|
-----------------------------------------2--3h-5----|--3-------------|
--2-----------------------------------2-------------|----------------|
--------------2--------------------2----------------|-----4----------|
----------------------------------------------------|----------------|
----------------------------------------------------|----------------|


----------------------------------------------------|--2-------------|
-----------------------------------------2--3h-5----|----------------|
--2-----------------------------------2-------------|-----4----------|
--------------2--------------------2----------------|----------------|
----------------------------------------------------|----------------|
----------------------------------------------------|----------------|


--0-------------------------------------------------|----------------|
--------------------------------------------3--5----|--3-------------|
--------------2--------------------2-----2----------|-----0----------|
--------------------------------------3-------------|----------------|
----------------------------------------------------|----------------|
----------------------------------------------------|----------------|


----------------------------------------------------|----------|-------|-------|
--2-------------------------------------------------|----------|-------|-------|
--------------0-----------------------------1h-2----|--2--1----|-------|-------|
--------------------------------1-----1h-2----------|----------|-------|-------|
----------------------------------------------------|----------|-------|-------|
----------------------------------------------------|----------|-------|-------|


-------|-------|-----------------------9----|--9-------------------------|
-------|-------|-----------------9--9-------|--------12----10----12------|
-------|-------|-----------10-10------------|----------------------------|
-------|-------|-----11-11------------------|----------------------------|
-------|-------|----------------------------|----------------------------|
-------|-------|----------------------------|----------------------------|


----------------------------|----------------|
-----------------7--7--10---|--10-9--7--9----|
-----------8--8-------------|----------------|
-----9--9-------------------|----------------|
----------------------------|----------------|
----------------------------|----------------|


--------------------------------------------9h-10---|
--10----------------------------10----10h12---------|
--------------9-------------------------------------|
----------------------------------------------------|
----------------------------------------------------|
----------------------------------------------------|


--12-------------------------------12-12h10-9-------|
----------------------------------------------------|
----------------------------------------------------|
----------------------------------------------------|
----------------------------------------------------|
----------------------------------------------------|


--10----------------10------|
-----------10-10------------|
----------------------------|
----------------------------|
----------------------------|
----------------------------|


--10----------------------------------10----9h-7----|
--------------------12----12------------------------|
----------------------------------------------------|
----------------------------------------------------|
----------------------------------------------------|
----------------------------------------------------|


--9-------------------------|----------------------------|
--------------------10------|--10----------------10------|
-----------9--9-------------|-----------11-11------------|
----------------------------|----------------------------|
----------------------------|----------------------------|
----------------------------|----------------------------|


----------------------------------------------------|-------|
--10----------------------------------------9h-7----|--9----|
----------------------------------------------------|-------|
----------------------------------------------------|-------|
----------------------------------------------------|-------|
----------------------------------------------------|-------|


----------------------------------------------------|
--------------------------------------------2h-3----|
--2-----------------------------2-----2h-4----------|
--------------2-------------------------------------|
----------------------------------------------------|
----------------------------------------------------|


----------------------------------------------------|
--5--------------------------------5--5h-3--2-------|
----------------------------------------------------|
----------------------------------------------------|
----------------------------------------------------|
----------------------------------------------------|


----------------------------|
--3-----------------3-------|
-----------2--2-------------|
----------------------------|
----------------------------|
----------------------------|


----------------------------------------------------|
--3-----------------------------------3-----2h-0----|
--------------------4-----4-------------------------|
----------------------------------------------------|
----------------------------------------------------|
----------------------------------------------------|


----------------------------|----------------------------|
--2-------------------------|----------------------------|
--------------------2-------|--2-----------------2-------|
-----------2--2-------------|-----------4--4-------------|
----------------------------|----------------------------|
----------------------------|----------------------------|


----------------------------------------------------|-------|-------|----------|
----------------------------------------------------|-------|-------|-----9----|
--2--------------------------------------2h-4h-2----|--1----|-------|-----9----|
----------------------------------------------------|-------|-------|-----9----|
----------------------------------------------------|-------|-------|----------|
----------------------------------------------------|-------|-------|-----0----|


-------||
--10---||
--9----||
--11---||
--0----||
-------||

Guitar 2

Gerudo Valley
E |-------|-------|--2-------------------------|--2-------------------------|
B |-------|-------|--2-------------------------|--3-------------------------|
G |-------|-------|--2-------------------------|--2-------------------------|
D |-------|-------|--4-------------------------|--0-------------------------|
A |-------|-------|--4-------------------------|----------------------------|
E |-------|-------|--2-------------------------|----------------------------|


--0-------------------------|----------------------------|
--0-------------------------|--2-------------------------|
--1-------------------------|--4-------------------------|
--2-------------------------|--3-------------------------|
--2-------------------------|--4-------------------------|
--0-------------------------|----------------------------|


--2-------------------------|--2-------------------------|
--2-------------------------|--3-------------------------|
--2-------------------------|--2-------------------------|
--4-------------------------|--0-------------------------|
--4-------------------------|----------------------------|
--2-------------------------|----------------------------|


--0-------------------------|
--0-------------------------|
--1-------------------------|
--2-------------------------|
--2-------------------------|
--0-------------------------|


----------------------------------------------------|
--2--2--x--2-----2--2--2--2--2--x--2-----2--2--2----|
--4--4--x--4-----4--4--4--4--4--x--4-----4--4--4----|
--3--3--x--3-----3--3--3--3--3--x--3-----3--3--3----|
--4-----------------------4-------------------------|
----------------------------------------------------|


--2--2--x--2-----2--2--2--2--2--x--2-----2--2--2----|
--2--2--x--2-----2--2--2--2--2--x--2-----2--2--2----|
--2--2--x--2-----2--2--2--2--2--x--2-----2--2--2----|
--4-----------------------4-------------------------|
--4-----------------------4-------------------------|
--2-----------------------2-------------------------|


--2--2--x--2-----2--2--2--2--2--x--2-----2--2--2----|
--3--3--x--3-----3--3--3--3--3--x--3-----3--3--3----|
--2--2--x--2-----2--2--2--2--2--x--2-----2--2--2----|
--0-----------------------0-------------------------|
----------------------------------------------------|
----------------------------------------------------|


--0--0--x--0-----0--0--0--0--0--x--0-----0--0--0----|
--0--0--x--0-----0--0--0--0--0--x--0-----0--0--0----|
--1--1--x--1-----1--1--1--1--1--x--1-----1--1--1----|
--2-----------------------2-------------------------|
--2-----------------------2-------------------------|
--0-----------------------0-------------------------|


----------------------------------------------------|
--2--2--x--2-----2--2--2--2--2--x--2-----2--2--2----|
--4--4--x--4-----4--4--4--4--4--x--4-----4--4--4----|
--3--3--x--3-----3--3--3--3--3--x--3-----3--3--3----|
--4-----------------------4-------------------------|
----------------------------------------------------|


--2--2--x--2-----2--2--2--2--2--x--2-----2--2--2----|
--2--2--x--2-----2--2--2--2--2--x--2-----2--2--2----|
--2--2--x--2-----2--2--2--2--2--x--2-----2--2--2----|
--4-----------------------4-------------------------|
--4-----------------------4-------------------------|
--2-----------------------2-------------------------|


--2--2--x--2-----2--2--2--2--2--x--2-----2--2--2----|
--3--3--x--3-----3--3--3--3--3--x--3-----3--3--3----|
--2--2--x--2-----2--2--2--2--2--x--2-----2--2--2----|
--0-----------------------0-------------------------|
----------------------------------------------------|
----------------------------------------------------|


--0--0--x--0-----0--0--0--0--0--x--0-----0--0--0----|
--0--0--x--0-----0--0--0--0--0--x--0-----0--0--0----|
--1--1--x--1-----1--1--1--1--1--x--1-----1--1--1----|
--2-----------------------2-------------------------|
--2-----------------------2-------------------------|
--0-----------------------0-------------------------|


----------------------------------------------------|
--2--2--x--2-----2--2--2--2--2--x--2-----2--2--2----|
--4--4--x--4-----4--4--4--4--4--x--4-----4--4--4----|
--3--3--x--3-----3--3--3--3--3--x--3-----3--3--3----|
--4-----------------------4-------------------------|
----------------------------------------------------|


--2--------2--------2-----2--------2--------2-------|
-----2--------2--------2-----2--------2--------2----|
--------2--------2--------------2--------2----------|
----------------------------------------------------|
----------------------------------------------------|
----------------------------------------------------|


--2--------2--------2-----2--------2--------2-------|
-----3--------3--------3-----3--------3--------3----|
--------2--------2--------------2--------2----------|
----------------------------------------------------|
----------------------------------------------------|
----------------------------------------------------|


--0--------0--------0-----0--------0--------0-------|
-----0--------0--------0-----0--------0--------0----|
--------1--------1--------------1--------1----------|
----------------------------------------------------|
----------------------------------------------------|
----------------------------------------------------|


--1--------1--------1-----1--------1--------1-------|
-----2--------2--------2-----2--------2--------2----|
--------1--------1--------------1--------1----------|
----------------------------------------------------|
----------------------------------------------------|
----------------------------------------------------|


--2--2--x--2-----2--2--2--2--2--x--2-----2--2--2----|
--2--2--x--2-----2--2--2--2--2--x--2-----2--2--2----|
--2--2--x--2-----2--2--2--2--2--x--2-----2--2--2----|
--4-----------------------4-------------------------|
--4-----------------------4-------------------------|
--2-----------------------2-------------------------|


--2--2--x--2-----2--2--2--2--2--x--2-----2--2--2----|
--3--3--x--3-----3--3--3--3--3--x--3-----3--3--3----|
--2--2--x--2-----2--2--2--2--2--x--2-----2--2--2----|
--0-----------------------0-------------------------|
----------------------------------------------------|
----------------------------------------------------|


--0--0--x--0-----0--0--0--0--0--x--0-----0--0--0----|
--0--0--x--0-----0--0--0--0--0--x--0-----0--0--0----|
--1--1--x--1-----1--1--1--1--1--x--1-----1--1--1----|
--2-----------------------2-------------------------|
--2-----------------------2-------------------------|
--0-----------------------0-------------------------|


----------------------------------------------------|
--2--2--x--2-----2--2--2--2-------------------------|
--4--4--x--4-----4--4--4--4-------------------------|
--3--3--x--3-----3--3--3--3-------------------------|
--4-----------------------4-------------------------|
----------------------------------------------------|


----------------------------------------------------|
--2-----0-------------------------------------------|
--------------2-----1-----------------------2L------|
----------------------------------------------------|
-----------------------------------4----------------|
--------------------------2-------------------------|


--------------------------------2-------------------|
--------------2--------------------------2----------|
--2--------------------2----------------------------|
-----4----------------------------------------------|
----------------------------------------------------|
----------------------------------------------------|

Great Fairy Fountain
--5-----------3-------------|--2-----------3-------------|
-----3-----3-----3-----3----|-----3-----3-----3-----3----|
--------3-----------3-------|--------3-----------3-------|
----------------------------|----------------------------|
----------------------------|----------------------------|
----------------------------|----------------------------|


--3-----------1-------------|--0-----------1-------------|
-----1-----1-----1-----1----|-----1-----1-----1-----1----|
--------2-----------2-------|--------2-----------2-------|
----------------------------|----------------------------|
----------------------------|----------------------------|
----------------------------|----------------------------|


----------------------------|----------------------------|
--6-----------5-------------|--4-----------5-------------|
-----3-----3-----3-----3----|-----3-----3-----3-----3----|
--------5-----------5-------|--------5-----------5-------|
----------------------------|----------------------------|
----------------------------|----------------------------|


----------------------------|----------------------------|
--5-----------3-------------|--2-----------3-------------|
-----2-----2-----2-----2----|-----2-----2-----2-----2----|
--------3-----------3-------|--------3-----------3-------|
----------------------------|----------------------------|
----------------------------|----------------------------|


--5-----------3-------------|--2-----------3-------------|
-----3-----3-----3-----3----|-----3-----3-----3-----3----|
--------3-----------3-------|--------3-----------3-------|
----------------------------|----------------------------|
----------------------------|----------------------------|
----------------------------|----------------------------|


--6-----------5-------------|--4-----------5-------------|
-----4-----4-----4-----4----|-----4-----4-----4-----4----|
--------5-----------5-------|--------5-----------5-------|
----------------------------|----------------------------|
----------------------------|----------------------------|
----------------------------|----------------------------|


--8-----------6-------------|--5-----------6-------------|
----------------------------|-----3-----3-----3-----3----|
-----7-----7-----7-----7----|--------3-----------3-------|
--------8-----------8-------|----------------------------|
----------------------------|----------------------------|
----------------------------|----------------------------|


--5-----------3-------------|----------------------------|
----------------------------|--6-----------5-------------|
-----3-----3-----3-----3----|-----3-----3-----3-----3----|
--------5-----------5-------|--------5-----------5-------|
----------------------------|----------------------------|
----------------------------|----------------------------|


--5-----------3-------------|--2-----------3-------------|
-----3-----3-----3-----3----|-----3-----3-----3-----3----|
--------3-----------3-------|--------3-----------3-------|
----------------------------|----------------------------|
----------------------------|----------------------------|
----------------------------|----------------------------|


--3-----------1-------------|--0-----------1-------------|
-----1-----1-----1-----1----|-----1-----1-----1-----1----|
--------2-----------2-------|--------2-----------2-------|
----------------------------|----------------------------|
----------------------------|----------------------------|
----------------------------|----------------------------|


----------------------------|----------------------------|
--6-----------5-------------|--4-----------5-------------|
-----3-----3-----3-----3----|-----3-----3-----3-----3----|
--------5-----------5-------|--------5-----------5-------|
----------------------------|----------------------------|
----------------------------|----------------------------|


----------------------------|----------------------------|
--5-----------3-------------|--2-----------3-------------|
-----2-----2-----2-----2----|-----2-----2-----2-----2----|
--------3-----------3-------|--------3-----------3-------|
----------------------------|----------------------------|
----------------------------|----------------------------|


--5-----------3-------------|--2-----------3-------------|
-----3-----3-----3-----3----|-----3-----3-----3-----3----|
--------3-----------3-------|--------3-----------3-------|
----------------------------|----------------------------|
----------------------------|----------------------------|
----------------------------|----------------------------|


--6-----------5-------------|--4-----------5-------------|
-----4-----4-----4-----4----|-----4-----4-----4-----4----|
--------5-----------5-------|--------5-----------5-------|
----------------------------|----------------------------|
----------------------------|----------------------------|
----------------------------|----------------------------|


--8-----------6-------------|--5-----------6-------------|
----------------------------|-----3-----3-----3-----3----|
-----7-----7-----7-----7----|--------3-----------3-------|
--------8-----------8-------|----------------------------|
----------------------------|----------------------------|
----------------------------|----------------------------|


--5-----------3-------------|----------------------------|
----------------------------|--6-----------5-------------|
-----3-----3-----3-----3----|-----3-----3-----3-----3----|
--------5-----------5-------|--------5-----------5-------|
----------------------------|----------------------------|
----------------------------|----------------------------|


--3-----------1-------------|--1-----------0-------------|
-----1-----1-----1-----1----|-----0-----0-----0----------|
--------2-----------2-------|--------1-----------1-------|
----------------------------|-----------------------2----|
----------------------------|----------------------------|
----------------------------|----------------------------|

Main Theme (Overworld)
----------------------------------------|
----------------------------------------|
--2-------------------------------------|
--2--------2--2-----2--------2--2-------|
--0--------0--0--0--0--------0--0--0----|
----------------------------------------|


----------------------------------------|
----------------------------------------|
----------------------------------------|
----------------------------------------|
--2--------2--2-----2--------2--2-------|
--3--------3--3--3--3--------3--3--3----|


----------------------------------------|
----------------------------------------|
----------------------------------------|
----------------------------------------|
--3--------3--3-----3--------3--3-------|
--1--------1--1--1--1--------1--1--1----|


----------------------------------------|
----------------------------------------|
----------------------------------------|
--2-------------------------------------|
--3--------3--3-----3--------3--3-------|
--0--------0--0--0--0--------0--0--0----|


----------------------------------------|
----------------------------------------|
----------------------------------------|
--0--------0--0-----0--------0--0-------|
--1--------1--1--1--1--------1--1--1----|
----------------------------------------|


----------------------------------------|
----------------------------------------|
----------------------------------------|
--2--------2--2-----2--------2--2-------|
--0--------0--0--0--0--------0--0--0----|
----------------------------------------|


----------------------------------------|
----------------------------------------|
----------------------------------------|
--1-----------------1-------------------|
--2--------2--2--2--2--------2--2--2----|
----------------------------------------|


----------------------------------------------------|
----------------------------------------------------|
--1-------------------------------------------------|
----------------------------------------------------|
--2-----2-----2-----2-----2-----2-----2-----2-------|
--0-----0--0--0-----0--0--0-----0--0--0-----0--0----|


----------------------------------------|
----------------------------------------|
--2-------------------------------------|
--2--------2--2-----2--------2--2-------|
--0--------0--0--0--0--------0--0--0----|
----------------------------------------|


----------------------------------------|
----------------------------------------|
----------------------------------------|
----------------------------------------|
--2--------2--2-----2--------2--2-------|
--3--------3--3--3--3--------3--3--3----|


----------------------------------------|
----------------------------------------|
----------------------------------------|
----------------------------------------|
--3--------3--3-----3--------3--3-------|
--1--------1--1--1--1--------1--1--1----|


----------------------------------------|
----------------------------------------|
--1-------------------------------------|
----------------------------------------|
--2--------2--2-----2--------2--2-------|
--0--------0--0--0--0--------0--0--0----|


----------------------------------------|
--------------------1--------4----------|
-----------2-----2----------------------|
--1-----1-----1--------------1----------|
-----0----------------------------------|
----------------------------------------|


----------------------------------------|
--5-------------------------------------|
----------------------------------------|
--2--------2-----2--2--------2-----2----|
----------------------------------------|
--------------0-----------------0-------|


----------------------------------------|
--------------------1--------4----------|
-----------2-----2----------------------|
--1-----1-----1--------------1----------|
-----0----------------------------------|
----------------------------------------|


----------------------------------------|
--5-------------------------------------|
----------------------------------------|
--2--------2-----2--2--------2-----2----|
----------------------------------------|
--------------0-----------------0-------|


----------------------------------------|
----------------------------------------|
----------------------------------------|
--0--------0--0-----0--------0--0-------|
--1--------1--1--1--1--------1--1--1----|
----------------------------------------|


----------------------------------------|
----------------------------------------|
----------------------------------------|
--2--------2--2-----2--------2--2-------|
--0--------0--0--0--0--------0--0--0----|
----------------------------------------|


----------------------------------------|
----------------------------------------|
----------------------------------------|
--1-----------------1-------------------|
--2--------2--2--2--2--------2--2--2----|
----------------------------------------|


----------------------------------------|
----------------------------------------|
--1-------------------------------------|
----------------------------------------|
--2--------2--2-----2--------2--2-------|
--0--------0--0--0--0--------0--0--0----|

Hyrule Field
----------------------------------------|
--2-------------------------------------|
--2-------------------------------------|
--2--------2--2-----2--------2--2-------|
--0--------0--0--0--0--------0--0--0----|
----------------------------------------|


----------------------------------------|
--0-------------------------------------|
-----------0----------------------------|
----------------------------------------|
--2--------2--2-----2--------2--2-------|
--3--------3--3--3--3--------3--3--3----|


----------------------------------------|
--2-------------------------------------|
--2-------------------------------------|
--2--------2--2-----2--------2--2-------|
--0--------0--0--0--0--------0--0--0----|
----------------------------------------|


----------------------------------------|
--3--------0----------------------------|
----------------------------------------|
----------------------------------------|
--2--------2--2-----2--------2--2-------|
--3--------3--3--3--3--------3--3--3----|


----------------------------------------|
----------------------------------------|
----------------------------------------|
----------------------------------------|
--3--------3--3-----3--------3--3-------|
--1--------1--1--1--1--------1--1--1----|


----------------------------------------|
--8-------------------------------------|
--9-------------------------------------|
----------------------------------------|
--7--------7--7-----7--------7--7-------|
--0--------0--0--0--0--------0--0--0----|


----------------------------------------|----------------------------|
--8-------------------------------------|--5-----------5-------------|
--8-------------------------------------|-----4-----4--4-------------|
--8--------8--8-----8--------8--8-------|--------7-----6-------------|
--6--------6--6--6--6--------6--6--6----|----------------------------|
----------------------------------------|--0-------------------------|


----------------------------|----------------------------|
--------2--2----------------|--------3--3----------------|
--------2--2----------------|--------2--2----------------|
-----2-----------2----------|-----4-----------4-----4----|
--0-----------------0-------|--0-----------------0-------|
----------------------------|----------------------------|


----------------------------|----------------------------|----------------|
--------2--2----------------|--------3--3----------------|--2-------------|
--------2--2----------------|--------2--2----------------|--4-------------|
-----2-----------2----------|-----4-----------4-----4----|--3-------------|
--0-----------------0-------|--0-----------------0-------|--4-------------|
----------------------------|----------------------------|----------------|


--2-------------|----------------|--0-------------|----------------------------|
--2-------------|--0-------------|--0-------------|--2-------------------------|
--2-------------|--2-------------|--1-------------|--2-----------------2-------|
--4-------------|--1-------------|--2-------------|--2--------2----------------|
--4-------------|--2-------------|--2-------------|--0--0--0--0--0--0--0--0----|
--2-------------|----------------|--0-------------|----------------------------|


----------------------------|----------------------------|
----------------------------|--3-----------------3-------|
--0-----------------0-------|--2--------2--2-----2-------|
--0--------0----------------|--0--------0--0-----0-------|
--2-------------------------|----------------------------|
--3--3--3--3--3--3--3--3----|--2--2--2--2--2--2--2--2----|


----------------------------|----------------------------|
--3--------0--0-----3-------|--2-------------------------|
--2--------2--2-----2-------|--2-----------------2-------|
--0--------0--0-----0-------|-----------2--2-------------|
----------------------------|--0--0--0--0--0--0--0--0----|
--1--1--1--1--1--1--1--1----|----------------------------|


----------------------------|----------------------------|
--3-----------------3-------|--3-----------------3-------|
--2-----------------2-------|--2--------2--2-----2-------|
--4--------4--4-----4-------|--4--------4--4-----4-------|
--2--2--2--2--2--2--2--2----|--0--0--0--0--0--0--0--0----|
----------------------------|----------------------------|


----------------------------|----------------------------|
--0-------------------------|--2-------------------------|
--1-------------------------|--2--------2----------------|
--2-------------------------|--2--------2----------------|
----------------------------|--0--0--0--0--0--0--0--0----|
--0--0--0--0--0--0--0--0----|----------------------------|


----------------------------|----------------------------|
----------------------------|--3-----------------3-------|
--0-------------------------|--2--------2--2-----2-------|
--0--------0----------------|--0--------0--0-----0-------|
--2--------2----------------|----------------------------|
--3--3--3--3--3--3--3--3----|--2--2--2--2--2--2--2--2----|


----------------------------|----------------------------|
--3-----------------3-------|--2-------------------------|
--2--------2--2-----2-------|--2--------2--2-------------|
--0--------0--0-----0-------|----------------------------|
----------------------------|--0--0--0--0--0--0--0--0----|
--1--1--1--1--1--1--1--1----|----------------------------|


----------------------------|----------------------------|--0-------------|
--3-----------------3-------|--3--------3--------3-------|--0-------------|
--2--------2--2-----2-------|--2--------2--------2-------|--1-------------|
----------------------------|----------------------------|--2-------------|
--2--2--2--2--2--2--2--2----|--0--0--0--0--0--0--0--0----|--2-------------|
----------------------------|----------------------------|--0--------0----|


--------------0-----9--12---|----------|-------||
-----------2-----10---------|----------|-------||
--------2-------------------|----------|-------||
-----2----------------------|----------|-------||
--0-------------------------|----<7>---|-<5>---||
----------------------------|----<7>---|-<5>---||

Leave a Comment

Your email address will not be published. Required fields are marked *

Scroll to Top