Zero’s Theme (Mega Man X) Guitar Tab

wooot! I tabbed Zero's theme from Megaman X!

Lots of Rock, please. Thank you.
e-----------------------------------------------]
b-----------------------------------------------]
g-----------------------------------------------]
d-------10---8---------------------10---8-------]
a----------------11-10-8------------------------]
e-8-8-8----8---8-------------8-8-8----8---------]

e-----------------------------------------------]
b-----------------------------------------------]
g-----------------------------------------------]
d-------10---8----------------------------------]
a----------------11-10-8------------------------]
e-8-8-8----8---8------------8-8-8---6h7h8-------]

Repeat those two parts, then go into this.

e-----------------------------------------------]
b-----------------------------------------------]
g-------10---8---------------------10---8-------]
d----------------11-10-8------------------------]
a-8-8-8----8---8-------------8-8-8----8---------]
e-----------------------------------------------]

e-----------------------------------------------]
b-----------------------------------------------]
g-------10---8----------------------------------]
d----------------11-10-8------------------------]
a-8-8-8----8---8-------------8-8-8---6h7h8------]
e-----------------------------------------------]

this was also played in the first stage of
the first MegaMan Zero game too.

Leave a Comment

Your email address will not be published. Required fields are marked *

Scroll to Top